Cifras Web
Andragonia

Draining My Heart

Andragonia

17 acessos


E|----------------------------------------|
B|----------------------------------------|
G|----------------------------------------|
D|----------------------------------------|
A|------------------------------4444-3333-|
E|-2-xxxx-2-xxxx-2-xxxxx-2-xxxx-----------|



E|-------------------------------|
B|-------------------------------|
G|-------------------------------|
D|-------------------------------|
A|-------------------4-3-2-0-2-3-|
E|-2-0-2---2-0-2---2-------------|


(Guitarra 1)

E|-------------------------------|
B|-------------------------------|
G|-------------------------------|
D|-------------------4-3-2-0-2-3-|
A|-2-0-2---2-0-2---2-------------|
E|-------------------------------|


(Guitarra 2)                                                                       HA

E|-----17-----------------------------------------------------------------------------|
B|-17b----r17---15-14-17-15-14----15-14--------------------------15-14h15p14----------|
G|-----------------------------16-------16-14-------14-----------------------16-14-16-|
D|--------------------------------------------16-14----16-14--------------------------|
A|-----------------------------------------------------------16-----------------------|
E|------------------------------------------------------------------------------------|

                            HA  HA  HA
E|--------------------------------------|
B|--------17-----------18---19/-19/-19/-|
G|-/14--------/15-----------------------|
D|-----16---------17--------------------|
A|--------------------------------------|
E|--------------------------------------|

Top cifras de Andragonia

  1. Secrets In The Mirror
  2. Draining My Heart
  3. Undead
  4. Cold Fire
  5. The Choice
  6. Silent Screams
  7. Shadowmaker
  8. Guitar Flash

Pela Web