Cifras Web
Andragonia

Secrets In The Mirror

Andragonia

18 acessos


   E5            C5              A5            B5
E|----------------------------|---------------------------|
B|----------------------------|---------------------------|
G|----------------------------|------------------------9~-|
D|------9--7/9--------7h9-7---|-------------------10-7----|
A|------7--5/7--10-10-------9-|--------7-5/7--9-9---------|
E|-0-00---------8--8----------|-5--5-5-5-5----7-7---------|



E|-----------------------------------------------|
B|-5-0---0-5-0---0-5-0---0-5-0---0-5-0---0-5-0---|
G|-----2-------2-------2-------2-------2-------2-|
D|-----------------------------------------------|
A|-----------------------------------------------|
E|-----------------------------------------------|


Passagem:

   F#5                   G5
E|---------------------------|
B|---------------------------|
G|---------------------------|
D|-4-4---4-4---4-4---4-4-5-5-|
A|-4-4---4-4---4-4---4-4-5-5-|
E|-2-2---2-2---2-2---2-2-3-3-|


Parte Calma:

   Em        Gadd9     Dsus4
E|---------------------------------|
B|-----------------0-----------3---|
G|-----4---------2-----------2---4-|
D|---5-----5---5-------5---5-------|
A|-7---------5-----------5---------|
E|---------------------------------|


Passagem:

   F#5                   G5
E|---------------------------|
B|---------------------------|
G|---------------------------|
D|-4-4---4-4---4-4---4-4-5-5-|
A|-4-4---4-4---4-4---4-4-5-5-|
E|-2-2---2-2---2-2---2-2-3-3-|


Harmônicos nos traste (harmônico natural)
E|---------------------------|
B|-7----------7--------------|
G|-----5----------5----------|
D|---5----------5----5-------|
A|---------------------------|
E|---------------------------|

Top cifras de Andragonia

  1. Secrets In The Mirror
  2. Draining My Heart
  3. Undead
  4. Cold Fire
  5. The Choice
  6. Silent Screams
  7. Shadowmaker
  8. Guitar Flash

Pela Web