Cifras Web
Andragonia

Shadowmaker

Andragonia

9 acessos


E|-----------------------------|------------------|
B|-----------------------------|-------------13---|
G|-----------------------------|-------------15b--|
D|-------------------------5-6-|-6-4-3---3-4------|
A|-----7---8-----7-----7-------|-------6----------|
E|-5-5---5---5-5---5-5---5-----|------------------|



E|---------------------------|--------------------|
B|---------------------------|--------------------|
G|---------------------------|--------------------|
D|---------------------5h6p5-|-------------------7|
A|-------3h4p3--6h7p6--------|--------------------|
E|-4-4-4---------------------|-x-x-x-x-x-x-x-x-x--|


Proving my hate, in a apocalipty chaos...

E|-----------------------------------|
B|-----------------------------------|
G|-----------------------------------|
D|---------------------------------8-|
A|-7---------7---------7---------8---|
E|-5-5-5-5-5-5-5-5-5-5-5-5-5-5-5-6---|


Evil power, keeping hopes...

E|---------------------------------------|
B|---------------------------------------|
G|---------------------------------------|
D|---------------------------------------|
A|-3-4-------3-4-6-7---3-4-------3-4-6-7-|
E|-----4-3-----------------4-3-----------|


Through eternal lies seeking salvation...

E|-----------------------|
B|-----------------------|
G|-----------------------|
D|-10---------8----------|
A|-8----11----6----8-----|
E|------9----------6-----|

   T          T          T            T

E|----------------------------------------------------|
B|----------------------------------------------------|
G|-13-12-9-12-13-12-9-12-13-12-9-12-9-13-14-----------|
D|----------------------------------------------------|
A|------------------------------------------7alavanca-|
E|----------------------------------------------------|


Welcome to land, where sun is borning without life...

E|-----------------------------------|
B|-----------------------------------|
G|-----------------------------------|
D|---------------------------------8-|
A|-7---------7---------7---------8---|
E|-5-5-5-5-5-5-5-5-5-5-5-5-5-5-5-6---|


The gold lights, dim the justice eyes...(pedal delay)

E|---------2-----------3-2-|
B|-------4---------3-4-----|
G|-----5---------5---------|
D|---5---------5-----------|
A|-3---------3-------------|
E|-------------------------|

Through eternal lies seeking salvation...

E|-----------------------|
B|-----------------------|
G|-----------------------|
D|-10---------8----------|
A|-8----11----6----8-----|
E|------9----------6-----|


"Behind the sun is my place oh my freedom my salvation"

E|---------------------|
B|---------------------|
G|---------------------|
D|-----------------8---|
A|-11---10----8----6---|
E|-9----8-----6--------|


It´s terrify,
The evil minded spreads it´s seeds inside our hearts

E|--------------------------------------------------------------------
B|--------------------------------------------------------------------
G|--------------------------------------------------------------------
D|--------------------------------------------------------------------
A|----------------------------------------------------6-6-6-6-6-6-6-6-
E|-9-9-9-9-9-9-9-9--8-8-8-8-8-8-8-8--6-6-6-6-6-6-6-6------------------


Pay the price or die (pedal delay)

E|----------------------|
B|----------------------|
G|----------------------|
D|-----------3~---2~----|
A|-3~---4~--------------|
E|----------------------|



E|----------------------------------------------------------------------|
B|----------------------------------------------------------------------|
G|----------------------------------------------------------------7-9-9-|
D|---------5---------------8-------------------10---------9-10-11-------|
A|-----7-8---8-7-----10-11---11-10-------12-13----13-12-7---------------|
E|-5-5-----------8-8---------------10-10--------------------------------|


(Talkbox/wah-wah)

E|--------------------------|
B|--------------------------|
G|--------------------------|
D|----------------------5-6-|
A|-7-8-7---5-5-7--5-5-7-----|
E|--------------------------|


Through the ashes through eternal life – shadowmaker
E|----------------------------------------|
B|----------------------------------------|
G|----------------------------------------|
D|----------------------------------------|
A|-8---8------------------------------6-7-|
E|---9---9--8h9p8-6-x-6-x-8h9p8---8-9-----|

Top cifras de Andragonia

  1. Secrets In The Mirror
  2. Draining My Heart
  3. Undead
  4. Cold Fire
  5. The Choice
  6. Silent Screams
  7. Shadowmaker
  8. Guitar Flash

Pela Web