Cifras Web
Andragonia

Silent Screams

Andragonia

11 acessos

Intro:

E|----------------------|
B|----------------------|
G|----------------------|
D|------6---------6-4---|
A|----6--------6------6-|
E|-4--------4-----------|



E|------------------------------------------------|
B|------------------------------------------------|
G|-/6---/8---8-9b11-9---8h9h8-6h8p6-4h6p4-3h4p3---|
D|----------------------------------------------4-|
A|------------------------------------------------|
E|------------------------------------------------|



E|-------------------------------------------------|
B|-------------------------------------------------|
G|-----9h11--11-12-12b14--12h14p12-11h12p11-9h11p9-|
D|-4/9---------------------------------------------|
A|-------------------------------------------------|
E|-------------------------------------------------|


Todas essas notas são em harmônicos naturais:

E|--------------------|
B|-5-7-----5-7--------|
G|-----5-------5---5~-|
D|--------------------|
A|--------------------|
E|--------------------|

I can see inside your eyes
All the things that you keep inside

Solo:
         T      T      T      T      T

E|---------------------------------------|
B|---------------------------------------|
G|---------------------------------------|
D|--4-6-10-4-6-10-4-6-10-4-6-10-4-6-10-4-|
A|---------------------------------------|
E|---------------------------------------|

      T  T    T  T    T  T    T  T     T

E|------------------------------------------|
B|------------------------------------------|
G|------------------------------------------|
D|--6-10-14-6-10-13-6-10-11-6-10-9-4-6-10-4-|
A|------------------------------------------|
E|------------------------------------------|

      T           T           T

E|---------------------------------------|-------------------|
B|---------------------------------------|-------------------|
G|---------------------------------------|-------------------|
D|--6-10-6----4-6-10-6----4-6-10-6-4-----|-------------------|
A|-----------------------------------7-6-|-------------------|
E|---------------------------------------|--4descer alavanca-|

    Harmônico feito no décimo quinto traste.

E|-----------------------------------------------------------|
B|-----------------------------------------------------------|
G|--15subir alavanca----------------15descer alavanca--------|
D|-----------------------------------------------------------|
A|-----------------------------------------------------------|
E|-----------------------------------------------------------|



E|-------------------------------------|--------------------------------------|
B|--17b----17-15-----------------------|--------------------------------------|
G|---------------17-16-14-16-16b-------|--------------------------------------|
D|-------------------------------------|--14-14-14-14-17--14--17--14--17------|
A|-------------------------------------|--------------------------------------|
E|-------------------------------------|--------------------------------------|


E|--------------------|-------------------------|-------------------||
B|--------------------|-------------------------|-------------------||
G|--------------------|-------------------------|-------------------||
D|--17descer alavanca-|----------------2--------|-------------------||
A|--------------------|----------------2--------|-------------------||
E|--------------------|--0-0-0-0-3~----0--------|-------------------||

TOP cifras de Andragonia

  1. Draining My Heart
  2. Secrets In The Mirror
  3. Undead
  4. Cold Fire
  5. The Choice
  6. Silent Screams
  7. Shadowmaker
  8. Guitar Flash

Pela Web