Cifras Web
Andragonia

The Choice

Andragonia

13 acessos


    B5        D5        G5          F#5
E|----------------------------------------|
B|----------------------------------------|
G|-----4---------7-----------12--------11-|
D|-----4---------7-----------12--------11-|
A|-2-2-2-----5-5-5-----10-10-10----9-9-9--|
E|----------------------------------------|


NH. . . . . . . . . . . . . . . . . . . . |

E|----------------------------------------|
B|-----7~---------------------------------|
G|---------------7~----------7~alavanca---|
D|----------------------------------------|
A|----------------------------------------|
E|----------------------------------------|



E|------------------------------------------------------------|
B|------------------------------------------------------------|
G|----------7-6-------------7-6------------9-9-9-9-7-7-7-7-6~-|
D|-9--9-9-9------7-9--9-9-9-----7--5-5-5-5--------------------|
A|------------------------------------------------------------|
E|------------------------------------------------------------|



E|--------------------------------------|
B|--------------------------------------|
G|---------------------------7h9h7-6----|
D|-9---7h9---7h9---7h9---7h9---------9~-|
A|--------------------------------------|
E|--------------------------------------|


     C#m                      Dsus2     A5
            T            T                                T
E|--------------------------------5---------5-2-4-----5-2-9-|
B|----------------------------------5-----------------------|
G|--------------------------9---2-----2---2---------2-------|
D|-----9/11-11------9/11-11---0---------2---------2---------|
A|----------------------------------------------------------|
E|-7/9----------7/9-----------------------------------------|

Top cifras de Andragonia

  1. Secrets In The Mirror
  2. Draining My Heart
  3. Undead
  4. Cold Fire
  5. The Choice
  6. Silent Screams
  7. Shadowmaker
  8. Guitar Flash

Pela Web