Cifras Web
Andragonia

Undead

Andragonia

15 acessos


E|--------------------------|
B|--------------------------|
G|--------------------------|
D|-----------------------3~-|
A|-----4-----------4--------|
E|-4-6---6-5---5-6---6-5----|


E|--------------------------|
B|-----8h9------------------|
G|-8h9-----8h9-6h8-8h9-6h8--|
D|--------------------------|
A|--------------------------|
E|--------------------------|

Top cifras de Andragonia

  1. Secrets In The Mirror
  2. Draining My Heart
  3. Undead
  4. Cold Fire
  5. The Choice
  6. Silent Screams
  7. Shadowmaker
  8. Guitar Flash

Pela Web