Cifras Web
André Abujamra

Olho Azul

André Abujamra

16 acessos

Intro:

E|----------|------|------------|
B|----------|------|------------|
G|----------|várias|---7--7--7--|
D|--5--5--5-|vezes-|--5--5--5---|
A|-3--3--3--|------|------------|
E|----------|------|------------|


Solo Intro

E|----------------------------------------------------------------------|
B|----------------------------------------------------------------------|
G|----------------------------------------------------------------------|
D|--7-5---3-2---7-5-3-2-0------------------------------5-3-2-0----------|
A|-------------------------3-5-7--7--3--0---7--3---7-----------3--5-3---|
E|----------------------------------------------------------------------|


  C
Meu olho azul é o negro diluído
 Dm
Racismo é um rio poluído
  C
Meu olho azul é o negro diluído
 Dm
Racismo é um rio poluído

 C
Eu sou branco Orixá me abençoou
         Dm
Se me chamar de negro
                       C
Vou falar que eu também sou

 C
Eu sou negro Orixá me abençoou
           Dm
Se me chamar de branco
                      C
Vou falar que eu também sou

Solo Intro

  C
Meu olho azul é o negro diluído
 Dm
Racismo é um rio poluído
  C
Meu olho azul é o negro diluído
 Dm
Racismo é um rio poluído

 C
Eu sou branco Orixá me abençoou
         Dm
Se me chamar de negro
                       C
Vou falar que eu também sou

 C
Eu sou negro Orixá me abençoou
           Dm
Se me chamar de branco
                      C
Vou falar que eu também sou

Solo Intro

 C
Limpa o rio, limpa o mar
 Dm              C
E viva a diferença!
 C
Limpa o rio, limpa o mar
 Dm             C
E viva a diferença!
 C            Dm      C
Limpa o rio, limpa o mar
 Dm              C
E viva a diferença!

Top cifras de André Abujamra

  1. Infinito de Pé
  2. Olho Azul
  3. Duvião
  4. Imaginação
  5. Ceilão
  6. Elevador
  7. O Mar

Pela Web