André Valadão

Eu Nasci de Novo

André Valadão


Intro: D9 A F#m7 E D9 A E (2x)
E|------------------------------------------------------------|\
B|------------------------------------------------------------| \
G|------------------------------------------------------------| \2x
D|-----2----2/4---2---4--6--7-7---6------2----2/4--2-------2--| /
A|-2/4---2---------------------------2/4---2----------2/4-----| /
E|------------------------------------------------------------|/


A9 D9 Bm7
Senhor, abra os meus olhos preciso ver
E F#m7
a realidade de quem eu sou
D9 G E4 E
criado em Ti, a Tua semelhança
A9 D9 Bm7
Senhor, o meu passado teu sangue apagou
E F#m7
uma nova vida me entregou,
D Bm7 Esus4 E
o Teu poder transforma meu ser de glória em glória

A9 F#m7
Eu nasci de novo, nasci de novo
Bm7 E4 E
em Ti sou mais que vencedor
A9 F#m7
Eu nasci de novo, nasci de novo
Bm7 A E4 E
Faz-me ver assim como sou


Intro: D9 A F#m7 E D9 A E
E|------------------------------------------------------------|
B|------------------------------------------------------------|
G|------------------------------------------------------------|
D|-----2----2/4---2---4/6--7-7---6------2----2/4--2-----------|
A|-2/4---2--------------------------2/4---2----------4/2------|
E|------------------------------------------------------------|



(volta ao inicio)

D9 A F#m E
Contigo eu fui crucificado
D9 A E
Morreu meu velho homem escravo, do pecado
D9 A E F#m
e agora eu sou livre em ti
D9 A9 Bm7 E B9 G#m7 F# E B9 F#
Não mais eu, mas Cristo vive em mim


E|--------------------------------------------------------|
B|--------------------------------------------------------|
G|--------------------------------------------------------|
D|-----4---4/6--4--6/8--9-9---8------4---4/6--4------4~~--|
A|-4/6---6-----------------------4/6---6---------4/6------|
E|--------------------------------------------------------|


B9 G#m7
Eu nasci de novo, nasci de novo
C#m7 F#4 F#
em Ti sou mais que vencedor
B9 G#m7(11)
Eu nasci de novo, nasci de novo
C#m7 B F#4 F#
Faz-me ver assim como sou
Uma nova criação eu sou
Uma nova criação eu sou

(E B9 G#m7 F# E B9 F# )

Curte essa cifra? Compartilhe com seus amigos:


Pela Web

Deixe seu comentário

Outras cifras de André Valadão