André Valadão

Mais que Abundante

André Valadão

(intro)  F     C/E       Bb      F/A C/E G
F C/E Am Dm C/E F Bb F/A G

C9 G/B Dm
Meu Deus é mais que abundante
F/G G
Supre as minhas necessidades
C9 G/B
Descanso em pastos verdejantes
Dm C/E F G F F/A G/B
Dm C/E F Am G F C Dm C/E
El Shaday cuida de mim

F C/E
Meu Pastor não vai deixar
Dm C/E
Na minha vida algo me faltar
F C/E Am
Confio em ti, meu El Shaday
Dm C/E F Am GDm C/E F Am G
Jesus, o Bom Pastor, cuida de mim 2º Dm C/E F Am G Bb F/A Dm Em Am G

(passagem p/ estrofe 3) Bb F/A F C/E

C9 G/B
Ainda que a figueira não floresça
Dm F G
E a terra toda estremeça
C9 G/B
Levanto minhas mãos a Ti
Dm C/E F G F F/A G/B
Dm C/E F Am G F Dm Em Bb F/A Em F (refrão)
El Shaday cuida de mim

Dm C/E F
Mais que abundante é o derramar
G
Do poder de Deus sobre mim;
C/E Dm Am
Elevo meu cálice a Ti
F C/E Dm Am
Eu sei, irá transbordar
Bb
Mais que abundante
F/A
Mais que abundante
Dm Am G
Mais que abundante

Bb
Mais que abundante
F/A
Mais que abundante

(subida) Dm Em F G A

G D/F#
Meu Pastor não vai deixar
Em D/F#
Na minha vida algo me faltar
G D/F# Bm
Confio em ti, meu El Shaday
Em D/F# G Bm A Em 1° ( D/F# G Bm A )
2° ( C G/B Em A )
Jesus, o Bom Pastor, cuida de mim

C
Mais que abundante
G/B
Mais que abundante
Em Bm A D
Mais que abundante- e -e -e.

E|----------- -------------------- -------------------------17^-----------12h13-15-13-12h13-12--
B|-12-13----- --------12-13-12---- -------12-13-15-13-13-15-----15p13h15------------------------
G|-------12^- -12-14-----------12^ -12-14-------------------------------------------------------
D|----------- -------------------- -------------------------------------------------------------
A|----------- -------------------- -------------------------------------------------------------
E|----------- -------------------- -------------------------------------------------------------

E|------------ -------------------- ------------------------------0/13^-12-10^--8h10--8---------
B|--12-13----- --------12-13-12-12^ -13-12----------------15-13---------------------------------
G|--------12^- -12-14-------------- -------14-12----14-12---------------------------------------
D|------------ -------------------- -------------12---------------------------------------------
A|------------ -------------------- ------------------------------------------------------------
E|------------ -------------------- ------------------------------------------------------------

Curte essa cifra? Compartilhe com seus amigos:


Pela Web

Deixe seu comentário

Outras cifras de André Valadão