Cifras Web
Anna Nalick

Drink Me

Anna Nalick

8 acessos

(intro)


E|-----0-----0---0--------|
B|---------4---3----------|
G|---5---5----------------|            X4
D|-7----------------------|
A|------------------------|
E|------------------------|


(verse) (Same as Intro)

E|-----0-----0---0--------|
B|---------4---3----------|
G|---5---5----------------|  		X10
D|-7----------------------|
A|------------------------|
E|------------------------|


(chorus)  "I'll take another drink me baby.."

E|-----------------------0-------0-------|
B|------0-------0------1---1---1---1-----|
G|----1---1---1---1--2-------2-----------|		X3
D|--2-------2----------------------------|
A|---------------------------------------|
E|---------------------------------------|


 "So let's..."

E|--------------------------------------------------------------------|
B|------1-------1--------1-------1-------0-------0-------0------------|
G|----2---2---2---2----2---2---2---2---1---1---1---1---1---1----------|
D|--3-------3--------3-------3-------2-------2-------2-------2--------|
A|--------------------------------------------------------------------|
E|--------------------------------------------------------------------|


(verse) ("So you're a fan of Coltrane...")
(chorus)

(bridge) ("And I won't be around...")

E|---0---0---0---0---0---0---0---0---0---0---0---0---0---0---0---0--|
B|-3---3---3---3---2---2---2---2---1---1---1---1---2---2---2---2----|
G|------------------------------------------------------------------|X3
D|------------------------------------------------------------------|
A|------------------------------------------------------------------|
E|------------------------------------------------------------------|


"You'll wake tomorrow..."

E|---0---0---0---0---0---0---0---0---0---0---0---0-----|
B|-3---3---3---3---2---2---2---2---1---1---1---1-------|
G|-----------------------------------------------------|
D|-----------------------------------------------------|
A|-----------------------------------------------------|
E|-----------------------------------------------------|


"Sammmeeee..."
E|--------------------------------------|
B|-----0-------0-------0----------------|
G|---1---1---1---1---1---1--------------|
D|-2-------2-------2------2-------------|
A|--------------------------------------|
E|--------------------------------------|

Top cifras de Anna Nalick

  1. Breathe (2 AM)
  2. In The Rough
  3. More Than Melody
  4. Paper Bag
  5. Citadel
  6. Soldier
  7. More Than Melody Intro
  8. Home Acoustic
  9. Wreck Of The Day
  10. Drink Me

Pela Web