Cifras Web
Anna Nalick

Home Acoustic

Anna Nalick

9 acessos

Album: Breathe Single (Import)
Tabbed by: heyray

Tuning: Standard (EADGBe)

The majority of this song is based around one main riff, but there are some minor
modifications to it, so I wrote it all out separately. Enjoy, and check out her
ablum, "Wreck of the Day."

INTRO

e|-----0-----0---------0-----0--------------|
B|---0-----0-----0---0-----0-----0----------|
G|-2-----2-----2---1-----1-----1------------|    X 2
D|------------------------------------------|
A|------------------------------------------|
E|------------------------------------------|


VERSE (Same as intro) "God it's gorgeous..."

e|-----0-----0---------0-----0---------------|
B|---0-----0-----0---0-----0-----0-----------|
G|-2-----2-----2---1-----1-----1-------------|   X 8
D|-------------------------------------------|
A|-------------------------------------------|
E|-------------------------------------------|


CHORUS "Here, take my bed..."

e|-----0-----0---------0-----0---------------|
B|---0-----0-----0---0-----0-----0-----------|
G|-2-----2-----2---1-----1-----1-------------|   X 3
D|-------------------------------------------|
A|-------------------------------------------|
E|-------------------------------------------|

   "Cause where you go..."

e|-----2-----2-----2-------------------------|
B|---0-----0-----0-0-(strum)-----------------|
G|-4-----4-----4---4-------------------------|
D|-------------------------------------------|
A|-------------------------------------------|
E|-------------------------------------------|



REPEAT INTRO
REPEAT VERSE ("Have I seen you...")

CHORUS Part II

e|-----0-----0---------0-----0---------------|
B|---0-----0-----0---0-----0-----0-----------|
G|-2-----2-----2---1-----1-----1-------------|   X 4
D|-------------------------------------------|
A|-------------------------------------------|
E|-------------------------------------------|


BRIDGE
e|--------------------------------------------------------------------|
B|-----0-----0----------0-----0---------0----0---------0-----0--------|
G|--------------------------------------------------------------------|  
D|---2-----2-----2----2-----2-----2---2----2-----2---2-----2-----2----|
A|----------------------------------0----0-----0----------------------|
E|-2-----2-----2----4-----4-----4------------------0-----0-----0------|

e|--------------------------------------2-----2-----2------------|
B|-----0-----0----------0-----0-------0-----0-----0-0-(strum)----|
G|----------------------------------4-----4-----4---4------------|  
D|---2-----2-----2----2-----2-----2------------------------------|
A|---------------------------------------------------------------|
E|-2-----2-----2----4-----4-----4--------------------------------|

REPEAT INTRO

Last Part: "God it's gorgeous..."

e|-----0-----0---------0-----0---------------|
B|---0-----0-----0---0-----0-----0-----------|
G|-2-----2-----2---1-----1-----1-------------|   X 3
D|-------------------------------------------|
A|-------------------------------------------|
E|-------------------------------------------|

  "Nowww"
e|-----0-----0-------------------------------|
B|---0-----0-----0-1-------------------------|
G|-2-----2-----2---2-(strum)-----------------|  
D|-----------------2-------------------------|
A|-------------------------------------------|
E|-------------------------------------------|


Send comments/suggestions/questions to *


===============================================================================

Top cifras de Anna Nalick

  1. Breathe (2 AM)
  2. In The Rough
  3. More Than Melody
  4. Paper Bag
  5. Citadel
  6. Soldier
  7. More Than Melody Intro
  8. Home Acoustic
  9. Wreck Of The Day
  10. Drink Me

Pela Web