Cifras Web
Anna Nalick

Soldier

Anna Nalick

10 acessos

Album: Wreck of the Day (Special Edition)

Tabbed by: Rachel	
Email: *

Tuning: Standard

Intro/Verses
     G		  C	      G           C           G

e|--------------------------------------------------------------------|
B|--------------------------------------------------------------------|
G|-------------------0-----0-----------------0-----0------------------|
D|-------0-----0---2-----2-------0-----0---2-----2-------0-----0------|
A|-----2-----2---3-----3-------2-----2---3-----3-------2-----2--------|
E|---3-----3-----------------3-----3-----------------3-----3----------|


     D/F#	  Em

e|--------------------------------------------------------------------|
B|--------------------------------------------------------------------|
G|--------------------------------------------------------------------|
D|-------0-----0-----2-----2-----2------------------------------------|
A|-----0-----0-----2-----2-----2-----2--------------------------------|
E|---2-----2-----0-----0-----0-----0---2------------------------------|


Chorus
    C   	 G	     D

e|------------------------------------------------------|
B|------------------------------3-----3-----3-----3-----|
G|------0-----0---------------2-----2-----2-----2-------|   X 2
D|----2-----2-------0-----0-0-----0-----0-----0---------|
A|--3-----3-------2-----2-------------------------------|
E|--------------3-----3---------------------------------|


    C   	G 	     D		  Am
e|------------------------------------------------------|
B|------------------------------3-----3-----------------|
G|------0-----0---------------2-----2-------2-----2-----|   
D|----2-----2-------0-----0-0-----0-------2-----2-------|
A|--3-----3-------2-----2---------------0-----0---------|
E|--------------3-----3---------------------------------|

   C
e|--------------------------|
B|--------------------------|
G|------0-----0-----0-----0-|   
D|----2-----2-----2-----2---|
A|--3-----3-----3-----3-----|
E|--------------------------|


Bridge (humming part): Repeat first part of chorus until verse comes back in

Repeat Verse
Repeat Chorus

End on G - 320003

| /  slide up
| \  slide down
| h  hammer-on
| p  pull-off
| ~  vibrato
| +  harmonic
| x  Mute note
===============================================================================

Top cifras de Anna Nalick

  1. Breathe (2 AM)
  2. In The Rough
  3. More Than Melody
  4. Paper Bag
  5. Citadel
  6. Soldier
  7. More Than Melody Intro
  8. Home Acoustic
  9. Wreck Of The Day
  10. Drink Me

Pela Web