Cifras Web
Anna Nalick

Wreck Of The Day

Anna Nalick

8 acessos

Wreck of the Day
Guitar tab

Standard tuning   



Intro: (play once)
  

e|-------------------------------------------------------------------------|
B|----------------------------------------------0------0-------------------|
G|--------0-----0-------------------0----0----0------0---------------------|
D|------2-----2-------0-----0-----1----1----2------2-----------------------|
A|---3------3-------2-----2-----2----2-------------------------------------|
E|----------------3-----3--------------------------------------------------|


Verse 1:

  Driving away from the wreck of the day and the lights always red in the rearview.
  Desperately close to a coffin of hope, Id cheat destiny just to be near you.


e|-------------------------------------------------------------------------|
B|----------------------------------------------------0-----0------------ *|
G|--------0-----0-----------------------0----0------0-----0----------------|
D|------2-----2---------0-----0-------1----1------2-----2------------------|
A|---3------3---------2-----2-------2----2------------------------------- *|
E|------------------3-----3------------------------------------------------|


Chorus:

  And if this is giving up, then im giving up
  If this is giving up, then im giving up... giving up.
                 

e|-------------------------------------------------------------------------|
B|---------------------------------------0-----0-----0-----0------------- *|
G|--------0-----0--------0-----0-------0-----0-----0-----0-----------------|
D|------2-----2--------1-----1-------2-----1-----0-------------------------|
A|---3------3--------2-----2---------------------------4----------------- *|
E|-------------------------------------------------------------------------|


   on love...                 on love...
                    

e|-------------------------------------------------------------------------|
B|-------------------------------------------------------------------------|
G|------0-----0---------0------0-------0-----0-----------------------------|
D|----2-----2---------2------2-------4-----4-------------------------------|
A|--3-----3---------4------4-------5-----5---------5--7--9--10--9--7\------|
E|-------------------------------------------------------------------------|


Verse 2:

  Driving away from the wreck of the day, and im thinking 'bout calling on Jesus,
  'Cuz love doesnt hurt, so I know Im not falling in love, im just falling to pieces.


e|-------------------------------------------------------------------------|
B|----------------------------------------------------0-----0------------ *|
G|--------0-----0-----------------------0----0------0-----0----------------|
D|------2-----2---------0-----0-------1----1------2-----2------------------|
A|---3------3---------2-----2-------2----2------------------------------- *|
E|------------------3-----3------------------------------------------------|







Chorus:

  And if this is giving up, then im giving up
  If this is giving up, then im giving up... giving up.
                 

e|-------------------------------------------------------------------------|
B|---------------------------------------0-----0-----0-----0------------- *|
G|--------0-----0--------0-----0-------0-----0-----0-----0-----------------|
D|------2-----2--------1-----1-------2-----1-----0-------------------------|
A|---3------3--------2-----2---------------------------4----------------- *|
E|-------------------------------------------------------------------------|


   on love...                 on love...
                    

e|-------------------------------------------------------------------------|
B|-------------------------------------------------------------------------|
G|------0-----0---------0------0-------0-----0-----------------------------|
D|----2-----2---------2------2-------4-----4-------------------------------|
A|--3-----3---------4------4-------5-----5---------5--7--9--10--9--7\------|
E|-------------------------------------------------------------------------|



Solo:


   Guitar 1


e|--12---7--8--8--10--8--3--2-----12--7--8--8--10--8--3--3--5--7-----------|
B|-------------------------------------------------------------------------|
G|-------------------------------------------------------------------------|
D|-------------------------------------------------------------------------|
A|-------------------------------------------------------------------------|
E|-------------------------------------------------------------------------|

 |
 | Guitar 2
 |

e|-------------------------------------------------------------------------|
B|------0-----0-----0-----0---------------------------------------------- *|
G|----0-----0-----0-----0---------0-----0-----0-----0----------------------|
D|--2-----1-----0---------------2-----2-----1-----1------------------------|
A|--------------------4-------3-----3-----2-----2------------------------ *|
E|-------------------------------------------------------------------------|



Bridge:

  Maybe I'm not up for being a victim of love
  All my resistance will never be distance enough 
                               

e|-------------------------------------------------------------------------|
B|------0-----0-----0-----0---------------------------------------------- *|
G|----0-----0-----0-----0---------0-----0-----0-----0----------------------|
D|--2-----1-----0---------------2-----2-----1-----1------------------------|
A|--------------------4-------3-----3-----2-----2------------------------ *|
E|-------------------------------------------------------------------------|



Interlude:

     *humming*
      

e|------------------------------|
B|---------------------------- *|
G|------0-----0-----------------|
D|----2-----2--------0-----0----|
A|--3-----3--------2-----2---- *|
E|---------------3-----3--------|


                    

e|------------------------------------------------------------------------|
B|------------------------------------------------------------------------|
G|------0-----0---------0------0-------0-----0----------------------------|
D|----2-----2---------2------2-------4-----4------------------------------|
A|--3-----3---------4------4-------5-----5---------5--7--9--10--9--7\-----|
E|------------------------------------------------------------------------|



Verse 3:

  Driving away from the wreck of the day,and it's finally quiet in my head
  Driving alone, finally on my way home to the comfort of my bed 

e|-------------------------------------------------------------------------|
B|----------------------------------------------------0-----0------------ *|
G|--------0-----0-----------------------0----0------0-----0----------------|
D|------2-----2---------0-----0-------1----1------2-----2------------------|
A|---3------3---------2-----2-------2----2------------------------------- *|
E|------------------3-----3------------------------------------------------|


Chorus:

  And if this is giving up, then im giving up
  If this is giving up, then im giving up... giving up.
                 

e|-------------------------------------------------------------------------|
B|---------------------------------------0-----0-----0-----0------------- *|
G|--------0-----0--------0-----0-------0-----0-----0-----0-----------------|
D|------2-----2--------1-----1-------2-----1-----0-------------------------|
A|---3------3--------2-----2---------------------------4----------------- *|
E|-------------------------------------------------------------------------|


   on love...                 on love...
                    

e|-------------------------------------------------------------------------|
B|-------------------------------------------------------------------------|
G|------0-----0---------0------0-------0-----0-----------------------------|
D|----2-----2---------2------2-------4-----4-------------------------------|
A|--3-----3---------4------4-------5-----5---------5--7--9--10--9--7\------|
E|-------------------------------------------------------------------------|


Solo 2(outro):


    Guitar 1


e|--12--7--8--10\--3--2-------------------------12--7--8--10\--3-----------|
B|-------------------------------------------------------------------------|
G|-------------------------------------------------------------------------|
D|-------------------------------------------------------------------------|
A|-------------------------------------------------------------------------|
E|-------------------------------------------------------------------------|

 |
 |  Guitar 2
 |

e|-------------------------------------------------------------------------|
B|------0-----0-----0-----0---------------------------------------------- *|
G|----0-----0-----0-----0---------0-----0-----0-----0----------------------|
D|--2-----1-----0---------------2-----2-----1-----1------------------------|
A|--------------------4-------3-----3-----2-----2------------------------ *|
E|-------------------------------------------------------------------------|




Tabbed by Jamie D.
email me if u have suggestions
*

Top cifras de Anna Nalick

  1. Breathe (2 AM)
  2. In The Rough
  3. More Than Melody
  4. Paper Bag
  5. Citadel
  6. Soldier
  7. More Than Melody Intro
  8. Home Acoustic
  9. Wreck Of The Day
  10. Drink Me

Pela Web