Cifras Web
Antidemon

Causas Alcoólicas

Antidemon

16 acessos

Introdução após o contrabaixo: C, Eb, D, Eb  -  C, Eb, D, Eb

Parte 1
C, Eb, D, Eb
A esperança que eu tive na vida 
C, Eb, D, F
Foi desperdiçada Por causas alcoólicas
C, Eb, D, Eb
Algo mais forte me seduzia 
C, Eb, D, F
E sem querer Mais e mais eu bebia

C, Eb, D, Eb  - C, Eb, D, F

C, Eb, D, Eb
Resultado de uma sentença de morte 
C, Eb, D, F
Fruto de algo Premeditado
C, Eb, D, Eb
Entidades disso se aproveitaram 
C, Eb, D, F                           C
E fizeram desse homem Movido a álcool


G|-----------------------------------------------------------|
D|---------8-7-5--------10-8-5---------8-7-5-8-7-5-8---------|
A|---------6-5-3--------8--6-3---------6-5-3-6-5-3-6---------|
E|-----------------------------------------------------------|


C                     D  -  Eb (8x)


G|-----------------------------------------------------------|
D|---------8-7-5--------10-8-5---------8-7-5-8-7-5-8---------|
A|---------6-5-3--------8--6-3---------6-5-3-6-5-3-6---------|
E|-----------------------------------------------------------|


Refrão
C              D  -  Eb
Lutas internas 
C                   D  -  Eb
Vazio, medo, receio 
C                        D  -  Eb
A dor de dentro pra fora 
C                         D  -  Eb
Corrói sem dó num momento
C                                    D  -  Eb
Vida amarga, tormento a alma castiga 
C                      D  -  Eb
A dor de ter arrasada 
C                        D  -  Eb
A consciência já inativa

C, Eb, D, Eb  - C, Eb, D, F

Parte 2 igual a parte 1
Essa situação demoníaca 
Eu logo quis 
Que acabasse a minha vida
Indo num estado já terminal 
Meu corpo sofria Cirrose hepática

Parte 3 igual a parte 1
Cai em mim mesmo e então resolvi 
Que devia lutar 
Contra as forças do mal! 
Minha vida toda se transformou 
E então da sargeta Me levantei

TOP cifras de Antidemon

  1. Viagem
  2. Massacre
  3. Causas Alcoólicas
  4. Mundo Cão
  5. Protesto A.M.N

Pela Web