Cifras Web
Antidemon

Massacre

Antidemon

20 acessos

Riff 1

E|-------------------------------------------------|
B|-------------------------------------------------|
G|--------5-5----5-5-5----5-5-5----5-6-8-----------|
D|--------5-5----5-5-5----5-5-5----5-6-8-----------|
A|--------3-3----3-3-3----3-3-3----3-4-6-----------|
E|-------------------------------------------------|


Riff 2 

E|--------------------------------------------------------------------------------------------------|
B|--------------------------------------------------------------------------------------------------|
G|--------5-5----5-5-5----5-5-5----5-5-5------5-6----6-6-6----6-8-8---8-6---8-----------------------|
D|--------5-5----5-5-5----5-5-5----5-5-5------5-6----6-6-6----6-8-8---8-6---8-----------------------|
A|--------3-3----3-3-3----3-3-3----3-3-3------3-4----4-4-4----4-6-6---6-4---6-----------------------|
E|--------------------------------------------------------------------------------------------------|


Riff 3
E|-----------------------------------------------------|
B|-----------------------------------------------------|
G|-----------------------------------------------------|
D|------- 3--------6-----8--------10--8--6--5----------|
A|--------3--------6-----8--------10--8--6--5----------|
E|--------1--------4-----6--------8---6--4--3----------|

Obs.: no riff 3, é tocado bem rápido em cada acorde do riff..

Intro: Riff 1 (4x)
       Riff 2 (4x)
       Riff 1 (4x)

Riff 2
massacre, massacre
                  F  (Na 4° vez)
massacre a todo mal

Riff 3 (2x)

Riff 3
de posse de um poder
poder que vem do alto
poder para vencer
poder que foi nos dado
poder vindo de um sangue
poder inigualável
poder vitorioso
poder contra o mal
poder de conquistar
poder vindo de Deus
poder de um grande reino
poder de massacrar

Riff 3 
Massacre (6x) na 2°vez é cantado (7x)

-----Riff 1 (4x)------

Riff 2
massacre, massacre
                 F  (Na 4° vez)
massacre a todo mal

-----Riff 3 (2x)------

Riff 3
massacre a angústia
massacre a depressão
massacre a toda morte
massacre ao diabo
massacre a satanás
massacre a lúcifer
massacre ao inferno
massacre a baal
massacre a belzebu
massacre a todo ódio
massacre a agressão
massacre a violência 

Riff 3 
Massacre (6x) na 2°vez é cantado (7x)

E termina com o Riff 1 tocado 2 vezes

TOP cifras de Antidemon

  1. Viagem
  2. Massacre
  3. Causas Alcoólicas
  4. Mundo Cão
  5. Protesto A.M.N

Pela Web