Cifras Web
Antidemon

Mundo Cão

Antidemon

12 acessos


E|--------------------------------------------------------------------------------------
B|--------------------------------------------------------------------------------------
G|---------------------------------------------------------5-6--5-6--5-6--5-6--5-6--5---
D|---------3--6--8-----3--6--8-----3--6--8-----3--6--8-----5-6--5-6--5-6--5-6--5-6--5---  4x
A|---------3--6--8-----3--6--8-----3--6--8-----3--6--8-----3-4--3-4--3-4--3-4--3-4--3---
E|---------1--4--6-----1--4--6-----1--4--6-----1--4--6----------------------------------



G|----------------|
B|----------------|
G|-----5-5-6-5----|
D|-----5-5-6-5----|
A|-----3-3-4-3----|
E|----------------|


E|--------------------|
B|--------------------|
G|-----5-6-5---5-6-5--|
D|-----5-6-5---5-6-5--|  4x
A|-----3-4-3---3-4-3--| 
E|--------------------|

Repete inteira

______________________________________________________________

onde tudo vai parar?
esse mundo me incomoda
quanta droga, quanta desgraça
alienados marginais
nesse mundo cão, mundo ladrão
mundo sem Deus

do mundo o mal se apossou
que vai fazer?
chega de vãs tentativas
o primeiro grito dessa guerra
já foi dado
confirmado por jesus lá na cruz

mundo sem Deus
mundo de trevas
mundo ladrão
é um mundo cão

procuram solução
pobre mente humana
cheia de contradições
qual a salvação?
qual a salvação para esse mundo cão?

só Jesus Cristo tem poder
pra esse mundo transformar
entregue|-se a ele
ele vai te dar
o real sentido de viver

mundo com Deus
mundo de paz
mundo de amor
não mundo cão

TOP cifras de Antidemon

  1. Viagem
  2. Massacre
  3. Causas Alcoólicas
  4. Mundo Cão
  5. Protesto A.M.N

Pela Web