Cifras Web
Antidemon

Protesto A.M.N

Antidemon

11 acessos

Somente a guitarra

E|-------------------------------------------------------------------------------------------------|
B|-------------------------------------------------------------------------------------------------|
G|-------------------------------------------------------------------------------------------------|
D|-------------------------------------------------------------------------------------------------|
A|---------3---3---3-----------------------------------3---------------------5---3-----------------|
E|---------------------3--5--7---8--7--5---3----------------7--5--3--5---1-0-----------------------|


Com os outros instrumentos

Riff  1

E|---------5h8-8-8-8-8-8-8------------------------|          E|-------5h8-8-8-8-8-8-8-8-8-8-8----11--|
B|---------5h8-8-8-8-8-8-8------------------------|          B|-------5h8-8-8-8-8-8-8-8-8-8-8----11--|
G|-----------------------------5--5--5---5--5--5--|   (3x)   G|--------------------------------------|
D|-----------------------------5--5--5---5--5--5--|          D|--------------------------------------|
A|-----------------------------3--3--3---3--3--3--|          A|--------------------------------------|
E|------------------------------------------------|          E|--------------------------------------|


Riff 2

E|---------------------------------------------|
B|---------------------------------------------|
G|--------------5--4--4-5----------------------|
D|------5-5-----5--4--4-5----------------------|
A|------5-5-----3--2--2-3----------------------|
E|------3-3------------------------------------|


Riff 1
Onde está que não responde?
O seu deus está dormindo?
ou será que foi viajar?
Tirou férias, foi pra praia?

Riff 2 
Idolatria
Cegos humanos
à adorar
um deus de barro

Riff 2
O meu protesto
de servo de DEUS
não adore maria
só adore a DEUS


G|---------5---4---5---9---3------5--------|
D|---------5---4---5---9---3------5--------|
A|---------3---2---3---7---5------3--------|
E|-----------------------------------------|

           a  ve   ma  ri  a     não

              (ave maria, não!)

TOP cifras de Antidemon

  1. Viagem
  2. Massacre
  3. Causas Alcoólicas
  4. Mundo Cão
  5. Protesto A.M.N

Pela Web