Cifras Web
Antônio Rovira

Romance de Amor

Antônio Rovira

10 acessos


E||--7--------7--------7--------|--7--------5--------3--------|
B||--------0--------0--------0--|--------0--------0--------0--|
G||-----0--------0--------0-----|-----0--------0--------0-----|
D||-----------------------------|-----------------------------|
A||-----------------------------|-----------------------------|
E||--0--------------------------|--0--------------------------|





--3--------2--------0--------|--0--------3--------7--------|
--------0--------0--------0--|--------0--------0--------0--|
-----0--------0--------0-----|-----0--------0--------0-----|
-----------------------------|-----------------------------|
-----------------------------|-----------------------------|
--0--------------------------|--0--------------------------|





--12--------12--------12--------|--12--------10--------8--------|
---------0---------0---------0--|---------0---------0--------0--|
------0---------0---------0-----|------0---------0--------0-----|
--------------------------------|-------------------------------|
--------------------------------|-------------------------------|
--0-----------------------------|--0----------------------------|





--8--------7--------5--------|--5--------7--------8--------|
--------5--------5--------5--|--------5--------5--------5--|
-----5--------5--------5-----|-----5--------5--------5-----|
-----------------------------|-----------------------------|
--0--------------------------|-----------------------------|
-----------------------------|-----------------------------|





--7--------11--------7--------|--11--------9--------7--------|
--------7---------7--------7--|---------7--------7--------7--|
-----8---------8--------8-----|------8--------8--------8-----|
------------------------------|------------------------------|
------------------------------|------------------------------|
--7---------------------------|--7---------------------------|





--7--------8--------7--------|--12--------7--------0--------|
--------0--------0--------0--|---------0--------0--------0--|
-----0--------0--------0-----|------0--------0--------0-----|
-----------------------------|------------------------------|
-----------------------------|------------------------------|
--0--------------------------|--0---------------------------|





--2--------2--------2--------|--2--------3--------2--------|
--------1--------1--------1--|--------0--------0--------0--|
-----2--------2--------2-----|-----2--------2--------2-----|
-----------------------------|-----------------------------|
--0--------------------------|--2--------------------------|
-----------------------------|-----------------------------|





--0--------0--------0--------|--0-------------||--4--------4--------4--------|
--------0--------0--------0--|--0-------------||--------0--------0--------0--|
-----0--------0--------0-----|--0------------*||-----1--------1--------1-----|
--2--------------------------|--2------------*||-----------------------------|
-----------2-----------------|--2-------------||-----------------------------|
--------------------3--------|--0-------------||--0--------------------------|





--4--------2--------0--------|--0--------------------------|
--------0--------0--------0--|-----------2--------4--------|
-----1--------1--------1-----|--------2--------2--------2--|
-----------------------------|-----4--------4--------4-----|
-----------------------------|--2--------------------------|
--0--------------------------|-----------------------------|





-----------------------------|--9--------9--------9--------|
--4--------2--------4--------|--------7---------7-------7--|
--------2--------2--------2--|-----8--------8---------8----|
-----4--------4--------4-----|-----------------------------|
--2--------------------------|-----------------------------|
-----------------------------|--7--------------------------|





--9--------11--------9--------|--9--------7--------7--------|
--------7----------7--------7-|--------9--------9--------9--|
-----8----------8--------8----|-----9--------9--------9-----|
------------------------------|-----------------------------|
------------------------------|-----------------------------|
--7---------------------------|--0--------------------------|





--7--------9--------9--------|--12--------12--------12--------|
--------9--------9--------9--|---------9---------9---------9--|
-----9--------9--------9-----|------9---------9---------9-----|
-----------------------------|--------------------------------|
-----------------------------|--------------------------------|
--0--------------------------|--0-----------------------------|





--12--------11--------10--------|--9-----0--9-----0--9-----0--|
---------9---------9------------|-----------------------------|
------9---------9------------0--|------6-------6--------6-----|
--------------------------2-----|-----------------------------|
--------------------------------|--0--------------------------|
--0-----------------------------|-----------------------------|





--9-----0--7-----0--5-----0--|--4--------4--------4--------|
-----------------------------|--------0--------0--------0--|
-----6--------6--------6-----|-----1--------1--------1-----|
-----------------------------|-----------------------------|
--0--------------------------|-----------------------------|
-----------------------------|--0--------------------------|





--4--------5--------2--------|--0--------0--------0--------|--0-------------||
--------4--------4--------4--|--------0--------0--------0--|--0-------------||
-----2--------2--------2-----|-----1--------1--------1-----|--1------------*||
-----------------------------|--2--------------------------|--2------------*||
--2--------------------------|-----------2-----------------|--2-------------||
-----------------------------|--------------------4--------|--0-------------||





--7--------7--------7--------|--7--------5--------3--------|
--------0--------0--------0--|--------0--------0--------0--|
-----0--------0--------0-----|-----0--------0--------0-----|
-----------------------------|-----------------------------|
-----------------------------|-----------------------------|
--0--------------------------|--0--------------------------|





--3--------2--------0--------|--0--------3--------7--------|
--------0--------0--------0--|--------0--------0--------0--|
-----0--------0--------0-----|-----0--------0--------0-----|
-----------------------------|-----------------------------|
-----------------------------|-----------------------------|
--0--------------------------|--0--------------------------|





--12--------12--------12--------|--12--------10--------8--------|
---------0---------0---------0--|---------0---------0--------0--|
------0---------0---------0-----|------0---------0--------0-----|
--------------------------------|-------------------------------|
--------------------------------|-------------------------------|
--0-----------------------------|--0----------------------------|





--8-----0--7-----0--5-----0--|--5-----0--7-----0--8-----0--|
-----1--------1--------1-----|-----1--------1--------1-----|
-----------------------------|-----------------------------|
-----------------------------|-----------------------------|
--0--------------------------|-----------------------------|
-----------------------------|-----------------------------|





--7--------11--------7--------|--11--------9--------7--------|
---------7--------7--------7--|---------7--------7--------7--|
-----8----------8-------8-----|------8--------8--------8-----|
------------------------------|------------------------------|
------------------------------|------------------------------|
--7---------------------------|--7---------------------------|





--7--------8--------7--------|--12--------7--------0--------|
--------0--------0--------0--|---------0--------0--------0--|
-----0--------0--------0-----|------0--------0--------0-----|
-----------------------------|------------------------------|
-----------------------------|------------------------------|
--0--------------------------|--0---------------------------|





--2--------2--------2--------|--2--------3--------2--------|
--------1--------1--------1--|--------0--------0--------0--|
-----2--------2--------2-----|-----2--------2--------2-----|
-----------------------------|-----------------------------|
--0--------------------------|--2--------------------------|
-----------------------------|-----------------------------|




--0--------0--------0--------|--0------------||
--------0--------0--------0--|--0------------||
-----0--------0--------0-----|--0------------||
--2--------------------------|--2------------||
-----------2-----------------|--2------------||
--------------------3--------|--0------------||

Top cifras de Antônio Rovira

  1. Romance de Amor

Pela Web