Cifras Web
Apulanta

Odotus

Apulanta

13 acessos

Tabbed by: pINCHy (*)
All lyrics are in Finnish. From the album "Plastik".
Tuning 1/2 step down

INTRO:


|------------------------------------------------------------------|
|--------------------------------------3-----3-----------2---2-----|
|------------------------------------2-----2---2-------2---4---2---|
|-----4-----4---------4-----4------0-----0-----------2-------------|
|---4---4-----4-----4---4-----4------------------0-0-------------0-|
|-2-------2-----2-0-------0-----0----------------------------------|



|------------------------------------------------------------------|
|--------------------------------------3-----3-----3-----3-----3---|
|------------------------------------2-----2-----2-----2-----2-----|
|-----4-----4---------4-----4------0-----0-----0-----0-----0-------|
|---4---4-----4-----4---4-----4----------------------------------0-|
|-2-------2-----2-0-------0-----0----------------------------------|



|------------------------------------------------------------------|
|--------------------------------------3-----3-----------2---2-----|
|------------------------------------2-----2---2-------2---4---2---|
|-----4-----4---------4-----4------0-----0-----------2-------------|
|---4---4-----4-----4---4-----4------------------0-0-------------0-|
|-2-------2-----2-0-------0-----0----------------------------------|

  Ikuisuus on     helppo saada     hetkeen   mahtumaan          ei
  keisari oo      vielä kääntänyt  peukaloaan
  Pahinta on      oottaa silmät    kiinni    osumaa
  On länsirintamalla         hiljaista

F#m       E       D          A
Tahtoisin näyttää sulle auringon
F#m        E           D         A
Kantaa sut pois taakse mustan verhon
F#m        E        D        A
Sun täytyy vaan irrottaa
F#m   E              D
Viedä pois sut tahtoisin


|------------------------------------------------------------------|
|--------------------------------------3-----3-----------2---2-----|
|------------------------------------2-----2---2-------2---4---2---|
|-----4-----4---------4-----4------0-----0-----------2-------------|
|---4---4-----4-----4---4-----4------------------0-0-------------0-|
|-2-------2-----2-0-------0-----0----------------------------------|

  On niin helppoo hautautua        tyhjiin kasvoihin          
  STOP-merkin kohdalla vain        kiihdyttää lujemmin
  Hölmöistä hölmöin ei vieläkään kohdannut vertaistaan
  Taas voittajalle kruunu ojennetaan

F#m       E       D          A
Tahtoisin näyttää sulle auringon
F#m        E           D         A
Kantaa sut pois taakse mustan verhon
F#m        E        D        A
Sun täytyy vaan irrottaa
F#m   E              D
Viedä pois sut tahtoisin

SOLO:

        F#m          E            D                A

|-----------------------------------------------------------------|
|-12b14-----------------------------------------------------------|
|-------13b14b13--------------------------------------------------|
|----------------11--9--11--11b12-11-------9/11-12-11-------9-----|
|--------------------------------------12-------------------------|
|-----------------------------------------------------------------|

        F#m          E            D
      |-----------------------------------------------------------|
      |-----------------------------------------------------------|
      |-13b14b13--------------------------------------------------|
      |-----------11-9---11b12-11---------------------------------|
      |---------------------------12-12-12-12-12-12-12-12---------|
      |-----------------------------------------------------------|

wahwah sointukulku
D	C#
D	C#

F#m       E       D          A
Tahtoisin näyttää sulle auringon
F#m        E           D         A
Kantaa sut pois taakse mustan verhon
F#m        E        D        A
Sun täytyy vaan irrottaa
F#m   E              D
Viedä pois sut tahtoisin

TOP cifras de Apulanta

  1. Vasten Mun Kasvojani
  2. Ei Tanaan
  3. Ihmemaa
  4. Mita Vaan
  5. Ei yhtään todistajaa
  6. Koneeseen Kadonnut
  7. Huomenna
  8. Iona
  9. Jyvat
  10. Roura

Pela Web