Cifras Web
Art Blakey And The Jazz Messengers

Moanin'

Art Blakey And The Jazz Messengers

58 acessos


                     Bb F                     Bb F                  Bb  F
E|----------------------|------------------------|-----------------------|
B|----------------------|------------------------|--------4--------------|
G|----------------------|---------4-4-5-4--------|------5---5-4-3--------|
D|---3-3-6-6-3---1-3----|---3-3-6---------6-3----|--3-3-----------3------|
A|-------------3--------|------------------------|-----------------------|
E|----------------------|------------------------|-----------------------|



                     Bb F  Gº7   C7
E|----------------------|-----------------------------|
B|----------------------|-----------------------------|
G|----------------------|-----------------------------|
D|---3-3-6-6-3---1-3----|---3-3-6-6-3-----------------|
A|-------------3--------|-------------3---------------|
E|----------------------|-----------------------------|


(Solo)


  F7(b9) Bbm9  Ab9       G7(b9)  C7(#9)  Gm7     F    B9    Bbm9 Ab9    G7(b9)          Gm7
E|-------------------------------------|----------------------------------------------------------------------|
B|-------------------------------------|-------------------------------------------------------4--------------|
G|------5-----5p4---4------------------|------------------5----5p4---4-----------------5----5----5-4-5--------|
D|--3-3-----------3---3-6----3-1---2-3-|3~-----------3-3-----------3---6-----3-(7-3-7)------------------------|
A|-------------------------------3-----|----------------------------------------------------------------------|
E|-------------------------------------|----------------------------------------------------------------------|



    C7               Bb  F                     Bb F                    Bb F
E|----------------------|------------------------|-----------------------|
B|----------------------|------------------------|---------4-------------|
G|----------------------|----------4-4-5-4-------|-------5---5-4-3-------|
D|--3-3-6-6-3---1-3-----|--3-3-6-6---------1-3---|---3-3-----------1-3---|
A|------------3---------|------------------------|-----------------------|
E|----------------------|------------------------|-----------------------|


                     Bb  F
E|----------------------|
B|----------------------|
G|----------------------|
D|--3-3-6-6-3---1-3~----|
A|------------3---------|
E|----------------------|

Top cifras de Art Blakey And The Jazz Messengers

  1. Moanin'
  2. Moanin'

Pela Web