Cifras Web
Aselin Debison

Cat In The Sun

Aselin Debison

11 acessos

 

A Cat in the Sun

Capo 8th Fret

Verse 1  (play 6x)

E||-|------10----------------------|---------------------------|
B||-|------8----11-----------9-----|--------9------------------|
G||-|------8----8-------8----8-----|-----8--8-------8----------|
D||-|---------------10-------------|-10---------10-----10--8---|
A||-|-----------11-----------8-----|--------11-----------------|
E||-|-8----------------------------|---------------------------|



Pre-Chorus  (play 2x)

E||-|------------------------------|---------------------------|
B||-|----11----8-------------------|---------------------------|
G||-|----8---------------8----10---|------8----10-------8------|
D||-|----8----------10-------------|--10------------10---------|
A||-|----------11-------------8----|-----------11--------------|
E||-|-8----------------------------|---------------------------|



E||-|------------------------------|---------------------------|
B||-|---------11---------------11--|-----------11--------------|
G||-|------8-----------------8-----|--------8------------8-----|
D||-|---8--------8-------8---------|-----8------------8-----8--|
A||-|----------------10------------|--9------------8-----------|
E||-|------------------------------|---------------------------|


Chorus   (play 4x)

E||-|------11---10-----------------|---------------------------|
B||-|------8--------------11---8---|-----------9---------------|
G||-|------8--------------8----8---|------8----8-------8-------|
D||-|----------------10------------|--10-----------10----10--8-|
A||-|-----------10-------------8---|-----------11--------------|
E||-|-11---------------------------|---------------------------|



E||-|-------------8------8---------|-----------8-----10--------|
B||-|-------------9---------8---9--|-----11----9-----11--------|
G||-|---------8-----------------10-|-----10--------------------|
D||-|-----10-----------------------|---------------------------|
A||-|-11---------------------------|---------------------------|
E||-|------------------------------|---------------------------|



(play 2 more times)

E||-|------11---10-----------------|---------------------------|
B||-|------8--------------11---8---|-----------9---------------|
G||-|------8--------------8----8---|------8----8-------8-------|
D||-|----------------10------------|--10-----------10----10--8-|
A||-|-----------10-------------8---|-----------11--------------|
E||-|-11---------------------------|---------------------------|



Verse

Pre-Chorus

Chorus


Bridge

E||-|------------------------------|---------------------------|
B||-|-----------11-----------------|-----------11--------------|
G||-|--------8------------------8--|---------8--------------8--|
D||-|-----8-----------------8------|------8--------------8-----|
A||-|--10---------------10---------|--11-------------11--------|
E||-|------------------------------|---------------------------|




E||-|------------------------------|------------10-------------|
B||-|-----------11-----------------|------------------11-------|
G||-|--------8------------------8--|---------8-----------------|
D||-|-----8-----------------8------|-----8---------------------|
A||-|------------------------------|--8------------------------|
E||-|-11----------------11---------|---------------------------|




E||-|------------------------------|---------------------------|
B||-|-----------11-----------------|-----------11--------------|
G||-|--------8------------------8--|---------8--------------8--|
D||-|-----8-----------------8------|------8--------------8-----|
A||-|--10---------------10---------|--11-------------11--------|
E||-|------------------------------|---------------------------|




E||-|------------------------------|---------------------------|
B||-|---------11---------------11--|-----------11--------------|
G||-|------8-----------------8-----|--------8------------8-----|
D||-|---8--------8-------8---------|-----8------------8-----8--|
A||-|----------------10------------|--9------------8-----------|
E||-|------------------------------|---------------------------|



 Through the guitar solo, play the verse, play nothing through the last pre-chorus, then 
out with the chorus.

TOP cifras de Aselin Debison

  1. Someone Is There Waiting For My Song
  2. Someone Is There
  3. I Fall In Love With You
  4. Cat In The Sun

Pela Web