Cifras Web
Ashanti

Southside

Ashanti

12 acessos

southside

tuning- standard

tabbed by- dan, *o

verse 4x


e---------5---------------------------|
B-------5-------8-5--5s7or5h7-5h7-----|
G-----5-----5-7-----------------------|
D-------------------------------------|
A-------------------------------------|
E-------------------------------------|



e---------5-------------|
B-------5-------8-5-----|
G-----5-----5-7---------|
D-----------------------|
A-----------------------|
E-----------------------|


chorus

e---------------------------------------------------|
B-----------3-3-1-------3-3-1-------3-3-1-3-5-3-----|
G-----2h4-5-------2h4-5-------2h4-5-----------------| x3
D---------------------------------------------------|  
A---------------------------------------------------|
E---------------------------------------------------|


e---------------------------------|
B-----------3-3-1---------8-5-----|
G-----2h4-5-------2---5-7---------|
D---------------------------------|
A---------------------------------|
E---------------------------------|


ball till we fall

Top cifras de Ashanti

  1. Rock Wit U
  2. Southside
  3. Only You Intro

Pela Web