Cifras Web
Asian Kung-fu Generation

No Name

Asian Kung-fu Generation

10 acessos

(riff 1)
(guitarra 1)

    A            B                Ab            A
E |-------------------------------------------------------|
B |--------------------------------------------------------------|
G |--------------------------------------------------------------|
D |-7---7---7---7-9---9---9-9---9---6---6---6---6-7---7---7-7---7|
A |-0-0-0-0-0-0-0-0-0-0-0-0-0-0-0-0-0-0-0-0-0-0-0-0-0-0-0-0-0-0-0|
E |--------------------------------------------------------------|


(riff 2)
(guitarra 1)

E |-----------------------------------------------------------------------------|
B |-----------------------------------------------------------------------------|
G |-----------------------------------------------------------------------------|
D |-7---7---7---7-9---9---9-9---9---11---11---11---11-12---12---12---12-12---12-|
A |-0-0-0-0-0-0-0-0-0-0-0-0-0-0-0-0-0--0-0--0-0--0-0--0--0-0--0-0--0-0--0--0-0--|
E |-----------------------------------------------------------------------------|


(riff 3)
(guitarra 2)

E |-----------------------|-----------------|
B |--10--10--12--12--12---|--10--10--12--17-|
G |-9---9---9---9---9---9-|-9---9--------14-| A segunda parte só quando vai entrar o verso
D |-----------------------|-----------------|
A |-----------------------|-----------------|
E |-----------------------|-----------------|


(intro) (riff 1 - 2x)
(riff 1 + riff 3 - 2x)
(riff 2 + riff 3) 
(riff 1 + riff 3)

(riff 1)
na mo naki koe no shoutai tsurezure
mebuku haru no hibiku ao wo
ienai boku no koukai
juugen juugen
mebuku haru no hibiku ao wo

(riff 4)
(guitarra 2)

E |-12-12----10-10----9----|
B |-------10-------10---10-|
G |------------------------|
D |------------------------|
A |------------------------|
E |------------------------|


(riff 1 + riff 4)
fuyu ga owaru machikado toke dasu shimobashira mo
tsunagu sekai oh yeah

(riff 1 + riff 3)

(riff 1)
magaranai ishi wo choudai
mugen mugen
kimi to boku no hibiku ao wo
kienai ai wo choudai
mugen mugen
kimi to boku no hibiku ao wo

(riff 1 + riff 4)
yami wo tsugeru ranpu mo nige dasu orion za mo
tsunagu sekai oh yeah

(intro)

    D     D/Db            B                   A
awaku awaku hikaru ki ga tooku naru hodo tooi ano hoshi mo
     D       D/Db             B                      A
sora de tsudoi soshite ten to sen de e ni nari namae ga tsuita
         D        D/Db             B
so nanda yo namae wo kure yo namae wo kure yo
  A
yeah


(solo 3x) D D/Db B A
E |----------------------------|    |-------|
B |----------------------------|    |-------|
G |-14-14-14-16-14-13-14-14-14-| x3 |-16-18-|
D |----------------------------|    |-------|
A |-12-12-12-14-12-11-12-12-12-|    |-14-16-|
E |----------------------------|    |-------|



E |------------------|      |--------------------------|
B |------------------|      |--------------------------|
G |-6--7--9--11--9--7|  x3  |-6--7--9--9/14--14--14-14-|
D |------------------|      |--------------------------|
A |------------------|      |--------------------------|
E |------------------|      |--------------------------|



E |------------------|      |---------------------------|
B |------------------|      |---------------------------|
G |-6--7--9--11--9--7|  x3  |-6--7--9---9/14--14--14-14-|
D |-7--9--11-12--11-9|      |-7--9--11-11/14--14--14-14-|
A |------------------|      |---------------------------|
E |------------------|      |---------------------------|


(riff 1 + riff 3)
kienai ai wo choudai
mugen mugen
mebuku haru no hibiku ao wo

TOP cifras de Asian Kung-fu Generation

  1. Solanin
  2. Kaigan Dori
  3. Natsu No Hi, Zanzou
  4. After Dark
  5. Tobenai Sakana
  6. Hikari
  7. Re Re
  8. N.G.S.
  9. Blackout
  10. Blue Train

Pela Web