Cifras Web
Asian Kung-fu Generation

Rashinban

Asian Kung-fu Generation

15 acessos

Intro
Verse
Prechorus
Chorus
Interlude
Chorus

Intro/Chorus
----------- 
----------- 
----------- 
-7---9-11-- 
-5-7-7--9-- 
---5------- 


-5-5-5-4-4-4-4-7-7-7-7-9-9-9-9--
--------------------------------
--------------------------------
--------------------------------
--------------------------------
--------------------------------



Verse

-----------------------------
-----------------------------
-----------------------------
----------7---------7--4-2-7-
-7--------5-----4-2-5--2-0-5-
-5--------------2-0----------





--------------
--------------
--------------
----7-6-------
-7--5-4-7--2--
-5------5--0--



prechorus

------------------------------
------------------------------
-6--6--6------------------------
-4--3--2-----------7------------
-----------4-------5--7--5---2--
-----------2----------5--3---0--





Interlude

gtr1
-------------
-------------
-------------
------2-4---- 
-4--2-0-2-2-- 
-2--0-----0-- 

gtr2

---------------------------
-7-7-7-5-5-5-5-4-4-4-4-0-0-
---------------------------
---------------------------
---------------------------
---------------------------





Gtr1

------------------------
------------------------
------------------------
-------2-x-x-4-x-x-x----
-4-x-x-0-x-x-2-x-x-x-2--
-2-x-x---------------0--



gtr2

-------------------------------------
-7-7-7-7-7...--5-5---7-7-7...--9-9-9-
-------------------------------------
-------------------------------------
-------------------------------------
-------------------------------------



gtr1

-----------------
-----------------
-----------------
-7-------9---11--
-5---7---7----9--
-----5-----------


gtr2

-------------------------
-5-5-5-5-5-5--5-5s7-7-7--
-------------------------
-------------------------
-------------------------
-------------------------


-
=
-
-
-7  let notes ring...
-5

TOP cifras de Asian Kung-fu Generation

  1. Solanin
  2. Kaigan Dori
  3. Natsu No Hi, Zanzou
  4. After Dark
  5. Tobenai Sakana
  6. Hikari
  7. Re Re
  8. N.G.S.
  9. Blackout
  10. Blue Train

Pela Web