Cifras Web
At The Drive-In

Proxima Centuari

At The Drive-In

14 acessos

Album: Vaya
Tabbed By:  Jeremy    *

/ = slide
// = pick more than once
 = harmonic
^ = bend

Intro strum strings behind neck

Guitar 1

6------12------12----------------17-------17-17/-
5-/12-----12-------12/15-15/17-------17----------
4------------------------------------------------
3------------------------------------------------
2------------------------------------------------
1------------------------------------------------

Guitar 2

6--------------------
5--------------------
4--------------------
3--------------------
2-77777---5555--10p9-
1-00000---0000-------


Guitar 1

6---------------------------------------------------
5------------12//----------------14//---------------
4------------------14//----11//--------14//-xxxxxxx-
3-999999999---------------------------------xxxxxxx-
2-777777777----------------------------12//-xxxxxxx-
1-000000000---------------------------------xxxxxxx-

Guitar 2

6---------------------------------------------------------------------------
5---------------------------------------------------------------------------
4-----------777----------------777-------777-------777-----222-------777777-
3-222-------777------555-------777-------777-------777-----222-------777777-
2-222--9p7--555------555--9p7--555-------555--9p7--555-----000--9p7--555555-
1-000------------5p3-333------------5p3----------------5p3------------------


Guitar 1

6-------------------------
5-------------------------
4-------------------------
3-7-----7-----7-----7-----
2---5p3---5p3---5p3---5p3-
1-------------------------


Guitar 1

6-------------------------------10-----10^-
5--------------------------/10-----10^-----
4-99999--777777----------------------------
3-99999--777777--101010--------------------
2-77777--555555--101010--------------------
1----------------8-8-8---------------------


Guitar 2

6--------------------------------------
5-88888--------------------------------
4-99999--777777------------------------
3-99999--777777--1010101010--777--9999-
2-77777--555555--1010101010--777--9999-
1----------------8-8-8-8-8---555--7777-


Guitar 1

6--------------15------14----------------------------------------------------------------
5--------15--------------------------------------10-------12-----------------------------
4-77777-----14-----14------14-----12--77777------------12----12--7777777--555555555--1414
3-77777------------------------12-----77777---------12-----------7777777--555555555------
2-55555-------------------------------55555/9/5------------------5555555--333333333--1212
1----------------------------------------------------------------------------------------

Guitar 2

6---------------------------------------------------------|-------
5---------------------------------------------------------|-------
4-77777--5-5-5--77777--5-5-5--77777--555555555--14141414--|--14//-
3-77777--5-5-5--77777--5-5-5--77777--555555555------------|-------
2-55555--3-3-3--55555--3-3-3--55555--333333333--12121212--|--12//-
1---------------------------------------------------------|-------


Guitar 1

6---------------------------9-----------
5------------------------------10-------
4----------------7-------6-----------
3----xxx-------xxx-----xxx------8--7-7\-
2----xxx-------xxx--5--xxx--------------
1-0--xxx-------xxx-----xxx---------5-5\-

Guitar 2
6----------------------------
5----------------------------
4------------7---------------
3---------5-----xxx--7\5/9\5-
2------------5--xxx----------
1---------3-----xxx--5\3/7\3-

TOP cifras de At The Drive-In

  1. One Armed Scissor
  2. Arcasenal
  3. Cosmonaut
  4. Fahrenheit
  5. Extracurricular
  6. Proxima Centuari
  7. Star Slight
  8. Pattern Against User
  9. Hulahoop
  10. Quarantined

Pela Web