Cifras Web
Ataraxia

Il Signore Delle Botole

Ataraxia

15 acessos


       E  E  E  E  E  E  E  E
E|------3--------2--------0--|
B|---------0--------0--------|
G|------------0--------0-----|
D|---------------------------|
A|---------------------------|
E|---0-----------------------|

                NH

   E  E  E  E    E  E  E  E   4x
-----0--------<>7------------||
--------0----------0-----0---||
--5--------5----------0-----*||
----------------------------*||
-----------------------------||
-----------------------------||



    E  E  E  E  E  E  E  E
---------------0-----------|
---------3--------3-----3--|
*-----0-----0--------0-----|
*--------------------------|
---3-----------------------|
---------------------------|



   E  E  E  E  E  E  E  E
--------------0-----------|
--------3--------3-----0--|
-----0-----0--------0-----|
--------------------------|
--3-----------------------|
--------------------------|



   E  E  E  E  E  E  E  E
--------------3-----------|
--------1--------1-----1--|
-----2-----2--------2-----|
--------------------------|
--0-----------------------|
--------------------------|



   E  E  E  E  E  E  E  E
--------------3-----------|
--------1--------1-----0--|
-----2-----2--------2-----|
--------------------------|
--0-----------------------|
--------------------------



   E  E  E  E  E  E  E  E
--------------------------|
--------------0-----------|
--------0--------0-----0--|
-----0-----0--------0-----|
--------------------------|
--3-----------------------|



   E  E  E  E  E  E  E  E
--------------------------|
--------------0-----------|
--------0--------0-----0--|
-----2-----2--------2-----|
--------------------------|
--3-----------------------|



   E  E  E  E  E  E  E  E
--------------------------|
--------------0-----------|
--------2--------2-----0--|
-----0-----0--------0-----|
--------------------------|
--3-----------------------|



   E  E  E  E  E  E  E  E
---------------------------||
--------------0------------||
--------0--------0-----0--*||
-----2-----2--------2-----*||
---------------------------||
--3------------------------||



   E  E  E  E  E  E  E  E
--------------0-----------|
--------1--------1-----0--|
-----0-----0--------0-----|
--------------------------|
--3-----------------------|
--------------------------|



   E  E  E  E  E  E  E  E
--------------------------|
--------------2-----------|
--------3--------3-----3--|
-----4-----4--------4-----|
--------------------------|
--2-----------------------|



   E  E  E  E  E  E  E  E
--------------2-----------|
--------3--------3-----3--|
-----4-----4--------4-----|
--------------------------|
--2-----------------------|
--------------------------|



   E  E  E  E  E  E  E  E
--------------3-----------|
-----------------3-----3--|
--------4-----------4-----|
-----5-----5--------------|
--------------------------|
--0-----------------------|



   E  E  E  E  E  E  E  E
--------------2-----------|
--------3--------3-----3--|
-----2-----2--------2-----|
--0-----------------------|
--------------------------|
--------------------------|



   E  E  E  E  E  E  E  E
--------------2-----------|
-----------3-----3-----0--|
--2-----2-----------2-----|
-----0--------------------|
--------------------------|
--------------------------|



   E  E  E  E  E  E  E  E
--------------0-----------|
--------2--------2-----2--|
-----3-----3--------3-----|
--------------------------|
--4-----------------------|
--------------------------|


  H        Q      E.  S

------------------0-----|
----------------------0-|
------------------------|
----------------/14-----|
------------------------|
--2--------L------------|



   S  E.  E   E.  E  E.  E
-----0-------0------0------|
--L------0-------0------0--|
---------------------------|
----12------10------9------|
---------------------------|
---------------------------|



   S. S. S. S. E.  E  E.  E
--0-----0-----0------0------|
-----0-----0------0------0--|
----------------------------|
--7-----5-----4------2------|
----------------------------|
----------------------------|


  E.  E  E.  E  S  S  S  S  S  S

--0------0------------------------|
------0------0--------------------|
----------------------------------|
--0-------------------------------|
---------3------2h-3p-2p-0h-------|
----------------------------3p-2h-|



     E  E  E  E  E  E  E  E
|------3--------2--------0--|
|---------0--------0--------|
|*-----------0--------0-----|
|*--------------------------|
|---------------------------|
|---0-----------------------|


                NH

   E  E  E  E    E  E  E  E   4x
-----0--------<>7------------||
--------0----------0-----0---||
--5--------5----------0-----*||
----------------------------*||
-----------------------------||
-----------------------------||



    E  E  E  E  E  E  E  E
---------------0-----------|
---------3--------3-----3--|
*-----0-----0--------0-----|
*--------------------------|
---3-----------------------|
---------------------------|



   E  E  E  E  E  E  E  E
--------------0-----------|
--------3--------3-----0--|
-----0-----0--------0-----|
--------------------------|
--3-----------------------|
--------------------------|



   E  E  E  E  E  E  E  E
--------------3-----------|
--------1--------1-----1--|
-----2-----2--------2-----|
--------------------------|
--0-----------------------|
--------------------------|



   E  E  E  E  E  E  E  E
--------------3-----------|
--------1--------1-----0--|
-----2-----2--------2-----|
--------------------------|
--0-----------------------|
--------------------------|



   E  E  E  E  E  E  E  E
--------------------------|
--------------0-----------|
--------0--------0-----0--|
-----0-----0--------0-----|
--------------------------|
--3-----------------------|



   E  E  E  E  E  E  E  E
--------------------------|
--------------0-----------|
--------0--------0-----0--|
-----2-----2--------2-----|
--------------------------|
--3-----------------------|



   E  E  E  E  E  E  E  E
--------------------------|
--------------0-----------|
--------2--------2-----0--|
-----0-----0--------0-----|
--------------------------|
--3-----------------------|



   E  E  E  E  E  E  E  E
---------------------------||
--------------0------------||
--------0--------0-----0--*||
-----2-----2--------2-----*||
---------------------------||
--3------------------------||



   E  E  E  E  E  E  E  E
--------------0-----------|
--------1--------1-----0--|
-----0-----0--------0-----|
--------------------------|
--3-----------------------|
--------------------------|



   E  E  E  E  E  E  E  E
--------------------------|
--------------2-----------|
--------3--------3-----3--|
-----4-----4--------4-----|
--------------------------|
--2-----------------------|



   E  E  E  E  E  E  E  E
--------------2-----------|
--------3--------3-----3--|
-----4-----4--------4-----|
--------------------------|
--2-----------------------|
--------------------------|



   E  E  E  E  E  E  E  E
--------------3-----------|
-----------------3-----3--|
--------4-----------4-----|
-----5-----5--------------|
--------------------------|
--0-----------------------|




   E  E  E  E  E  E  E  E
--------------2-----------|
--------3--------3-----3--|
-----2-----2--------2-----|
--0-----------------------|
--------------------------|
--------------------------|



   E  E  E  E  E  E  E  E
--------------2-----------|
-----------3-----3-----0--|
--2-----2-----------2-----|
-----0--------------------|
--------------------------|
--------------------------|



   E  E  E  E  E  E  E  E
--------------0-----------|
--------2--------2-----2--|
-----3-----3--------3-----|
--------------------------|
--4-----------------------|
--------------------------|


  H        Q      E.  S

------------------0-----|
----------------------0-|
------------------------|
----------------/14-----|
------------------------|
--2--------L------------|



   S  E.  E   E.  E  E.  E
-----0-------0------0------|
--L------0-------0------0--|
---------------------------|
----12------10------9------|
---------------------------|
---------------------------|



   S. S. S. S. E.  E  E.  E
--0-----0-----0------0------|
-----0-----0------0------0--|
----------------------------|
--7-----5-----4------2------|
----------------------------|
----------------------------|


  E.  E  E.  E  S  S  S  S  S  S

--0------0------------------------|
------0------0--------------------|
----------------------------------|
--0-------------------------------|
---------3------2h-3p-2p-0h-------|
----------------------------3p-2h-|


    Q    Q    Q    Q

|-----------------------|
|-----------------------|
|*-----------------0----|
|*------------4---------|
|--------2--------------|
|---0-------------------|


  Q    Q    Q    Q

-----------------------||
-----------------------||
-----------------0----*||
--4---------4---------*||
-------2---------------||
-----------------------||


   Q    Q    Q    Q

-----------------------|
-----------------------|
*-----------------0----|
*------------4---------|
--------0--------------|
---0-------------------|


  Q    Q    Q    Q

-----------------------||
-----------------------||
------------0---------*||
--4--------------4----*||
-------0---------------||
-----------------------||


   Q    Q    Q    Q

-----------------------|
-----------------------|
*-----------------0----|
*------------4---------|
--------2--------------|
---0-------------------|


  Q    Q    Q    Q

-----------------------||
-----------------------||
-----------------0----*||
--4---------4---------*||
-------2---------------||
-----------------------||


   Q    Q    Q    Q

-----------------------|
-----------------------|
*-----------------0----|
*------------4---------|
--------0--------------|
---0-------------------|


  Q    Q    Q    Q

-----------------------||
-----------------------||
------------0---------*||
--4--------------4----*||
-------0---------------||
-----------------------||


   Q    Q    Q    Q

-----------------------|
---1----0--------------|
*------------2----0----|
*----------------------|
-----------------------|
-----------------------|


  Q    Q    Q    Q

----------------------|
----------------------|
----------------------|
--4----2----0---------|
-----------------2----|
----------------------|


  Q    Q    Q    Q

----------------------|
----------------------|
------------0---------|
-------2--------------|
--3--------------3----|
----------------------|


  Q    Q    Q    Q

----------------------|
----------------------|
-------0--------------|
--2---------2---------|
-----------------3----|
----------------------|


  Q    Q    Q    Q

----------------------|
----------------------|
------------0---------|
-------2--------------|
--3--------------3----|
----------------------|


  Q    Q    Q    Q

----------------------|
----------------------|
-------0--------------|
--2---------2---------|
-----------------3----|
----------------------|


  Q    Q    Q    Q

----------------------|
----------------------|
------------0---------|
-------0--------------|
--2--------------2----|
----------------------|


  Q    Q    Q    Q

----------------------|
----------------------|
-------0--------------|
--0---------0---------|
-----------------2----|
----------------------|


  Q    Q    Q    Q

-----------------------||
-----------------------||
------------0---------*||
-------0--------------*||
--2--------------2-----||
-----------------------||


  Q    Q    Q    Q

----------------------|
----------------------|
-------0--------------|
--0---------0---------|
-----------------2----|
----------------------|


  Q    Q    Q    Q

----------------------|
------------1---------|
----------------------|
-------2--------------|
--0--------------0----|
----------------------|


  Q    Q    Q    Q

----------------------|
-------1--------------|
----------------------|
--2---------2---------|
-----------------0----|
----------------------|


  Q    Q    Q    Q

----------------------|
------------1---------|
-----------------2----|
-------0--------------|
----------------------|
--2-------------------|


  Q    Q    Q    Q

----------------------|
--3----1----0---------|
-----------------2----|
----------------------|
----------------------|
----------------------|


    Q    Q    Q    Q

|-----------------------|
|-----------------------|
|*-----------------0----|
|*------------4---------|
|--------2--------------|
|---0-------------------|


  Q    Q    Q    Q     4x

-----------------------||
-----------------------||
-----------------0----*||
--4---------4---------*||
-------2---------------||
-----------------------||


  Q    Q    Q    Q

----------------------|
----------------------|
-----------------0----|
------------4---------|
-------2--------------|
--0-------------------|


  Q    Q    Q    Q

----------------------|
----------------------|
-----------------0----|
--4---------4---------|
-------2--------------|
----------------------|


  Q    Q    Q    Q

----------------------|
----------------------|
-----------------0----|
------------4---------|
-------2--------------|
--0-------------------|


  Q    Q    Q    Q

----------------------|
----------------------|
-----------------0----|
--4---------4---------|
-------2--------------|
----------------------|


  H.             E.  S

-----------------0-----|
---------------------0-|
--L--------------------|
---------------/14-----|
-----------------------|
-----------------------|



   S  E.  E   E.  E  E.  E
-----0-------0------0------|
--L------0-------0------0--|
---------------------------|
----12------10------9------|
---------------------------|
---------------------------|



   S. S. S. S. E.  E  E.  E
--0-----0-----0------0------|
-----0-----0------0------0--|
----------------------------|
--7-----5-----4------2------|
----------------------------|
----------------------------|


  E.  E  E.  E  S  S  S  S  S  S

--0------0------------------------|
------0------0--------------------|
----------------------------------|
--0-------------------------------|
---------3------2h-3p-2p-0h-------|
----------------------------3p-2h-|


  W
-------------------||
-------------------||
-------------------||
-------------------||
-------------------||
--0----------------||

TOP cifras de Ataraxia

  1. Il Signore Delle Botole
  2. Bleumarine
  3. Le Ore Rosa Di Mazenderan
  4. Li Frere Li Mestre Du Temple
  5. Scarlet Leaves

Pela Web