Cifras Web
Ataxia

Ethiopian Song

Ataxia

9 acessos

standard tuning


0:01-0:33


e---------------------------------------------|
b---------------------------------------------|
g------------------------9-11-11-9-11-9-------|
D----7-9-9-7-9-7------11----------------12-12-|
A--9-------------9-9--------------------------|
E---------------------------------------------|


0:34-0:40


e---------------------------------------------|
b------10-------------12----------------------|
g---11----11-9-----11----11-9-----------------|
D--------------12-------------12--------------|
A---------------------------------------------|
E---------------------------------------------|


0:41-0:42


e---------------------------------------------|
b------10------------12-----------------------|
g---11----11-9----11----11h/12/p11/p9---------|
D--------------12---------------------11-12---|
A---------------------------------------------|
E---------------------------------------------|


0:43-1:08


e---------------------------------------------|
b---------------------------------------------|
g------------------------9-11-11-9-11-9-------|
D----7-9-9-7-9-7------11----------------12-12-|
A--9-------------9-9--------------------------|
E---------------------------------------------|


1:09-1:11


e--------------------------------12-14--------|
b----------------------10-12--14--------------|
g-------------9-11--11------------------------|
D----7-9---11---------------------------------|
A--9------------------------------------------|
E---------------------------------------------|


1:12-2:00


e---------------------------------------------|
b---------------------------------------------|
g------------------------9-11-11-9-11-9-------|
D----7-9-9-7-9-7------11----------------12-12-|
A--9-------------9-9--------------------------|
E---------------------------------------------|


2:01-2:06


e---------------------------------------------|
b------10-------------12----------------------|
g---11----11-9-----11----11-9-----------------|
D--------------12-------------12--------------|
A---------------------------------------------|
E---------------------------------------------|


2:06-2:08


e---------------------------------------------|
b------10------------12-----------------------|
g---11----11-9----11----11h/12/p11/p9---------|
D--------------12---------------------11-12---|
A---------------------------------------------|
E---------------------------------------------|


2:09-2:25


e---------------------------------------------|
b---------------------------------------------|
g------------------------9-11-11-9-11-9-------|
D----7-9-9-7-9-7------11----------------12-12-|
A--9-------------9-9--------------------------|
E---------------------------------------------|


2:26-2:29


e--------------------------------------------------------------12-14/16-h12-h14-------|
b-----------------------------------------10-12/14-h10-h12--14------------------------|
g----------------------9-11/13-h9-h11--11---------------------------------------------|
D----7-9/11-h7-h9---11----------------------------------------------------------------|
A--9----------------------------------------------------------------------------------|
E-------------------------------------------------------------------------------------|


2:30-2:53


e---------------------------------------------|
b---------------------------------------------|
g------------------------9-11-11-9-11-9-------|
D----7-9-9-7-9-7------11----------------12-12-|
A--9-------------9-9--------------------------|
E---------------------------------------------|


2:54-2:59


e---------------------------------------------|
b------10-------------12----------------------|
g---11----11-9-----11----11-9-----------------|
D--------------12-------------12--------------|
A---------------------------------------------|
E---------------------------------------------|


3:00-3:02


e---------------------------------------------|
b------10------------12-----------------------|
g---11----11-9----11----11-12-11--------------|
D--------------12----------------11-12--------|
A---------------------------------------------|
E---------------------------------------------|


3:03-3:19


e---------------------------------------------|
b---------------------------------------------|
g------------------------9-11-11-9-11-9-------|
D----7-9-9-7-9-7------11----------------12-12-|
A--9-------------9-9--------------------------|
E---------------------------------------------|


3:20-3:23


e--------------------------------------------------------------12-14/16-h12-h14-------|
b-----------------------------------------10-12/14-h10-h12--14------------------------|
g----------------------9-11/13-h9-h11--11---------------------------------------------|
D----7-9/11-h7-h9---11----------------------------------------------------------------|
A--9----------------------------------------------------------------------------------|
E-------------------------------------------------------------------------------------|


3:24-4:00


e---------------------------------------------|
b---------------------------------------------|
g------------------------9-11-11-9-11-9-------|
D----7-9-9-7-9-7------11----------------12-12-|
A--9-------------9-9--------------------------|
E---------------------------------------------|


4:01-4:02


e---------------------------------------------|
b---10/12-------------------------------------|
g---------------------------------------------|
D---------------------------------------------|
A---------------------------------------------|
E---------------------------------------------|



and thats all!
enjoy!!!


by notnormal

TOP cifras de Ataxia

  1. Attention Intro
  2. Montreal
  3. Addition
  4. Ethiopian Song
  5. The Sides
  6. Dust
  7. Another
  8. Emptys Response

Pela Web