Cifras Web
ATB

9 Pm Til I Come

ATB

16 acessos


TAB BY: MARCOS BORTOLUSSI


HI, This is my first tab, I'm sure it's correct, if you can't  get the sound of the bending and
realease, try to bend it a bit less.


Intro:
	 Goes with delay


|----------------------------------------|
|---------------13----------------10-13--|
|-14-14b16r14-------10-10b12r10----------|
|----------------------------------------|
|----------------------------------------|
|----------------------------------------|


Main Riff:	Without delay

|-----------------------------------------------------------------------------|
|---------------13-13-13-15b17r15----------------------10-10-10-13b15r13------|
|-14-14b16r14-----------------------10---10-10b12r10----------------------12--|
|-----------------------------------------------------------------------------|
|-----------------------------------------------------------------------------|
|-----------------------------------------------------------------------------|


This part sounds very similar but i'm not very sure if it's 100 % correct


|------------------------------|
|----11----11------9----9--11--|
|-12----12------10---10--------|
|------------------------------|
|------------------------------|
|------------------------------|


Any correction, sugestion or dude, e-mail me to *


--------------------------------------------------------------------------------

Legend
------

 h  = hammer-on		 |  = bar
 p  = pull-off		||  = double bar
 b  = bend		||* = repeat start
 r  = bend release	*|| = repeat end
 /  = slide up/down	*|  = double bar (end)
[5] = nat. harmonic	 !  = repeat beat (?,8th)
 = art. harmonic	!!  = repeat beat (16th)
 ~  = vibrato		 %  = repeat measure
 tr = trill		 :  = bar (freetime)
 T  = tap		du  = tremolo bar dip
 TP = trem. picking	 d  = tremolo bar down
 PM = palm muting	 u  = tremolo bar up
 S  = slap		ud  = tremolo bar inverted dip
 P  = pop		 =  = hold (bend or tremolo bar)

Top cifras de ATB

  1. 9 Pm Til I Come
  2. 9pm Till I Come
  3. Let You Go (reworked)
  4. 9 Pm Till I Come Intro

Pela Web