Cifras Web
Audioslave

Hypnotize

Audioslave

12 acessos

Intro:

-8-8/7---7---7---7---7-7/5---5---5---5-5-5/3---3---3---3-3/2---2---2---2--
-------5---5---5-----------5---5---5---------5---5---5-------5---5---5----
--------------------------------------------------------------------------   x2
--------------------------------------------------------------------------
--------------------------------------------------------------------------
--------------------------------------------------------------------------



chorus:

----------------------------------------------------------------------------
----------------------------------------------------------------------------
----------------------------------------------------------------------------
-----9-----9-0------------------7-----6-7-0---------------------------------
-------7-9------7---7---------5---5-----------7-8-0-7--5--7--------------------
---7--------------7---7--10---------------------------------------------



riff:
---------------------------------------------------------------------------
---------------------------------------------------------------------------
---------------------------------------------------------------------------
---------8-----7-------5----------8-----7-----5...--------------------------------
---7-5-x---7-x---7--x-------7-5-x---7-x---7-x--------------------------------
---------------------------------------------------------------------------

TOP cifras de Audioslave

  1. Until We Fall
  2. Heaven's Dead
  3. I Am The Highway
  4. #1 Zero
  5. Like a Stone
  6. What you are
  7. Dandelion
  8. Nothing Left To Say But Goodbye
  9. Wide Awake
  10. Give

Pela Web