Cifras Web
Audioslave

Number 1 Zero

Audioslave

16 acessos

Tabbed By : deftfist	
e-mail: *

Album: Out of Exile



Tuning: DROP D


G|---------------|
D|----2----------|
A|---------------| x6
D|--2---2-0-2-2--| 


G|-----------------|----------------------|
D|-----------------|----------------------|
A|-----------------|----------------------|
D|--5h7-7-7-5-7-7--|--5h7-7-7-5-7-7--12\--|


G|---------------|
D|----2----------|
A|---------------| x2
D|--2---2-0-2-2--| 


G|-----------------|-----------------|
D|-----------------|-----------------|
A|-----------------|-----------------|
D|--5h7-7-7-5-7-7--|--5h7-7-7-5/--9--| 


G|---------------|
D|----2----------|
A|---------------| x2
D|--2---2-0-2-2--| 


G|-------------------------|-------------------|
D|-------------------------|-------------------|
A|-------------------------|-------------------|
D|--2h5p2/--5h7-7-7-5-7-7--|--5h7-7-7-7-5-7-7--|


G|---------------|
D|----2----------|
A|---------------| x2
D|--2---2-0-2-2--| 


G|-------------------------|-------------------|------|
D|-------------------------|-------------------|------|
A|-------------------------|-------------------|------|
D|--2h5p2/--5h7-7-7-5-7-7--|--5h7-7-7-7-5-7-7--|--5\--|


G|---------------|----------------------------|
D|----2----------|----2-----------------------|
A|---------------|----------------------------|
D|--2---2-0-2-2--|--2---2-0-2-2/--8p7-5\--2/--|


G|-----------------|-----------------|--------|
D|-----------------|-----------------|--------|
A|-----------------|-----------------|--------|
D|--5h7-7-7-5-7-7--|--5h7-7-7-5-7-7--|--9-10--|


G|-------|----------|-------------------------|---------------|
D|-------|----------|-------------------------|---------------|
A|-------|----------|-------------------------|---------------|
D|--5-7--|--7-9-10--|--10-10-10-10-10/--12-9--|--9-9-9-9\--5--|


G|---------------|
D|----2----------|
A|---------------| x2
D|--2---2-0-2-2--| 


G|-----------------|-----------------|
D|-----------------|-----------------|
A|-----------------|-----------------|
D|--5h7-7-7-5-7-7--|--5h7-7-7-5/--9--| 


G|---------------|
D|----2----------|
A|---------------| x2
D|--2---2-0-2-2--| 


G|-------------------------|---------------------|---------|
D|-------------------------|---------------------|---------|
A|-------------------------|---------------------|---------|
D|--2h5p2/--5h7-7-7-5-7-7--|--2/--5h7-7-7-5-7-7--|--7/--9--|


G|---------------|-------|-------------------------------|
D|----2----------|-------|----2--------------------------|
A|---------------|-------|-------------------------------|
D|--2---2-0-2-2--|--1p0--|--2---2-0-8p7-5\--2-8p7-5\--2--|


G|-----------------|-----------------------|--------|
D|-----------------|-----------------------|--------|
A|-----------------|-----------------------|--------|
D|--5h7-7-7-5-7-7--|--2/--5h7-7-7-7-5-7-7--|--9-10--| 


G|-----------|----------------|-------------------------------|
D|-----------|----------------|-------------------------------|
A|-----------|----------------|-------------------------------|
D|--5-7-6-7--|--7-5-7/--9-10--|--10-7-10/--12\--7-5-7/--9-10--|


G|---------------|-----|
D|---------------|-----|
A|---------------|-----|
D|--7/10-7/10-9--|--9--|


G|----------------------|
D|--------2\--0-2---2\--|
A|----------------------| x3
D|--5p4-2---------2-----|


G|---------------------------------|
D|--------------------------5h7----|
A|----------------------5h7-----5--|
D|--5h7-7-5h7-7-5h7-8h9------------|


G|----------------------|
D|--------2\--0-2---2\--|
A|----------------------| x3
D|--5p4-2---------2-----|


G|---------------------------------|
D|--------------------------5h7----|
A|----------------------5h7-----5--|
D|--5h7-7-5h7-7-5h7-8h9------------|


G|----------------------|
D|--------2\--0-2---2\--|
A|----------------------| x2
D|--5p4-2---------2-----|


G|-------------|
D|-------------|
A|-------------| x3
D|--2/--5h7-7--| 


G|---------------------|
D|--------------5h7----|
A|----------5h7-----5--|
D|--2/--8h9------------| 


G|----------------------|
D|--------2\--0-2---2\--|
A|----------------------| x2
D|--5p4-2---------2-----|


G|-------------|
D|-------------|
A|-------------| x3
D|--2/--5h7-7--| 


G|---------------------|
D|--------------5h7----|
A|----------5h7-----5--|
D|--2/--8h9------------| 


G|----------------------|
D|--0h2---2\--0h2---2\--|
A|----------------------| x3
D|------2---------2-----|


G|---------------------------------|
D|--------------------------5h7----|
A|----------------------5h7-----5--|
D|--5h7-7-5h7-7-5h7-8h9------------|


G|----------------------|
D|--0h2---2\--0h2---2\--|
A|----------------------| x3
D|------2---------2-----|


G|---------------------------------|
D|--------------------------5h7----|
A|----------------------5h7-----5--|
D|--5h7-7-5h7-7-5h7-8h9------------|


G|-----|
D|-----|
A|--3--|
D|-----| let ring


G|-----|
D|-----|
A|--0--|
E|-----| let ring


G|-----|
D|-----|
A|--3--|
D|-----| let ring


G|-----------------------|
D|-----------------------|
A|--3p0-3-3/5-0---0-2-3--|
D|--------------5--------|


G|-------------|
D|-------------|
A|--1/3-1/3-2--|
E|-------------|


G|-----------------|
D|----1/2----------|
A|-----------------| x2
D|--2-----2-0-2-2--|


G|-----------------|-----------------|------|
D|----5/7----------|----5/7----------|------|
A|-----------------|-----------------|------|
E|--7-----7-5-7-7--|--7-----7-5-7-7--|--9\--|


G|-----------------|
D|----1/2----------|
A|-----------------| x2
D|--2-----2-0-2-2--| 


G|-----------------|-----------------------|
D|----5/7----------|----5/7----------------|
A|-----------------|-----------------------|
E|--7-----7-5-7-7--|--7-----7-5-7-7/--9-2--| let ring



| /  slide up
| \  slide down
| h  hammer-on
| p  pull-off
===============================================================================

TOP cifras de Audioslave

  1. Until We Fall
  2. Heaven's Dead
  3. I Am The Highway
  4. #1 Zero
  5. Like a Stone
  6. What you are
  7. Dandelion
  8. Nothing Left To Say But Goodbye
  9. Wide Awake
  10. Give

Pela Web