Cifras Web
Audioslave

Revelations

Audioslave

16 acessos

Here is the first part of the intro intro, in drop D

    Q    Q    Q    Q       Q    Q    Q    Q       Q    Q    Q    Q     

E||----------------------|----------------------|----------------------|
B||----------------------|-------3--------------|----------------------|
G||------------5---------|--2---------2---------|----------------------|
D||-------3---------0----|-----------------0----|------------5---------|
A||--1-------------------|----------------------|-------3---------5----|
D||----------------------|----------------------|--3-------------------|


  Q    Q    Q    Q       Q    Q    Q    Q       Q    Q    Q    Q     

----------------------|----------------------|----------------------|
----------------------|----------------------|----------------------|
-------7--------------|----------------------|-------7--------------|
--7---------7---------|------------7---------|--7---------7---------|
-----------------5----|-------5---------5----|-----------------5----|
----------------------|--5-------------------|----------------------|


  Q    Q    Q    Q       Q      

----------------------|-------||
----------------------|--3----||
----------------------|--2----||
------------2----4----|--0----||
-------0--------------|-------||
--0-------------------|-------||


Second part of intro

     Q    Q    Q    Q       Q    Q    Q    Q       Q    Q    Q    Q     

E||----------------------|----------------------|----------------------|
B||----------------------|-------3--------------|----------------------|
G||------------5---------|--2---------2---------|----------------------|
D||-------3---------0----|-----------------0----|------------5---------|
A||--1-------------------|----------------------|-------3---------5----|
D||----------------------|----------------------|--3-------------------|


  Q    Q    Q    Q       Q    Q    Q    Q       Q    Q    Q    Q       Q     

----------------------|----------------------|----------------------|-------|
----------------------|----------------------|----------------------|--3----|
-------7--------------|----------------------|-------7--------------|--2----|
--7---------7---------|------------7---------|--7---------7---------|--0----|
-----------------5----|-------5---------5----|-----------------5----|--0----|
----------------------|--5-------------------|----------------------|--0----|


-Main Riff

E|-------------------------------------------------------|
B|-------------------------------------------------------|
G|-------------------------------------------------------|4x
D|-0-0-x-x-----------------------------------------------|
A|-0-0-x-x--8--5------3-3-3-3---0-0-0-0----3-3-3-3-------|
D|-0-0-x-x-------------------------------------------3b--|


-Verse ["You know what to do..."]


E|------------------------|   |------------------|
B|------------------------|3x |------------------|
G|------------------------|   |------------------|
D|------------------------|   |-7-7-7-7----------|
A|-3/5-5-3-5--------5-----|   |-8-8-8-8-7-7-7-7--|
D|------------0-0-0---0---|   |------------------|



E|------------------------|   |------------------|
B|------------------------|3x |------------------|
G|------------------------|   |------------------|
D|------------------------|   |-7-7-7-7----------|
A|-3/5-5-3-5--------5-----|   |-8-8-8-8-7-7-7-7--|
D|------------0-0-0---0---|   |------------------|



E|------------------------|
B|------------------------|4x
G|------------------------|
D|------------------------|
A|-3/5-5-3-5--------5-----|
D|------------0-0-0---0---|

-Chorus ["It's such a shame.."]


E|------------------------------------------------------------------|
B|------------------------------------------------------------------|
G|------------------------------------------------------------------|
D|-7-7-7-7-5-5-5-5-2-2-2-2-3-3-3-3-7-7-7-7-5-5-5-5-4-4-4-4-4-4-4-4--|
A|-8-8-8-8-7-7-7-7-3-3-3-3-5-5-5-5-8-8-8-8-7-7-7-7-5-5-5-5-5-5-5-5--|
D|------------------------------------------------------------------|



E|----------------------------------------------------------------------|
B|----------------------------------------------------------------------|
G|----------------------------------------------------------------------|
D|-7-7-7-7-5-5-5-5-7-7-7-7-10-10-10-10-7-7-7-7-5-5-5-5-4-4-4-4-4-4-4-4--|
A|-8-8-8-8-7-7-7-7-8-8-8-8-8--8--8--8--8-8-8-8-7-7-7-7-5-5-5-5-5-5-5-5--|
D|----------------------------------------------------------------------|



E|---------------------------------------------------------------|
B|---------------------------------------------------------------|
G|-7-7-7-5-7-7-7--7-7-7-5-7-7-7--7-7-7-5-7-7-7--7-7-7-5-7-7-7\---|
D|-7-7-7-5-5-7-7--7-7-7-5-7-7-7--7-7-7-5-7-7-7--7-7-7-5-7-7-7\---|
A|-5-5-5-3-5-5-5--5-5-5-3-5-5-5--5-5-5-3-5-5-5--5-5-5-3-5-5-5\---|
D|---------------------------------------------------------------|


[Main Riff] 2x
[Verse]

-Chorus 2


E|------------------------------------------------------------------|
B|------------------------------------------------------------------|
G|------------------------------------------------------------------|
D|-7-7-7-7-5-5-5-5-2-2-2-2-3-3-3-3-7-7-7-7-5-5-5-5-4-4-4-4-4-4-4-4--|
A|-8-8-8-8-7-7-7-7-3-3-3-3-5-5-5-5-8-8-8-8-7-7-7-7-5-5-5-5-5-5-5-5--|
D|------------------------------------------------------------------|



E|----------------------------------------------------------------------|
B|----------------------------------------------------------------------|
G|----------------------------------------------------------------------|
D|-7-7-7-7-5-5-5-5-7-7-7-7-10-10-10-10-7-7-7-7-5-5-5-5-4-4-4-4-4-4-4-4--|
A|-8-8-8-8-7-7-7-7-8-8-8-8-8--8--8--8--8-8-8-8-7-7-7-7-5-5-5-5-5-5-5-5--|
D|----------------------------------------------------------------------|


-Solo


E|-------------------------------------------------------------|
B|-------------------------------------------------------------|
G|-7-7-7-5-7-7-7--7-7-7-5-7-7-7--7-7-7-5-7-7-7--7-7-7-5-7-7-7--|
D|-7-7-7-5-5-7-7--7-7-7-5-7-7-7--7-7-7-5-7-7-7--7-7-7-5-7-7-7--|
A|-5-5-5-3-5-5-5--5-5-5-3-5-5-5--5-5-5-3-5-5-5--5-5-5-3-5-5-5--|
D|-------------------------------------------------------------|


-Bridge ["I am haunted.."]

E|---------------------------------------------------------------|
B|-----------------------------3------------------------------3--|
G|------------7--------------2---2-------------7--------------2--| 4x
D|-----10---7---7--------5-0-------0-----7---7---7-------2-4--0--|
A|---8----8-------8----3---------------5---8-------8---0---------|
D|-8-----------------3---------------5---------------0-----------|



E|------------------------------------------------------------------|
B|------------------------------------------------------------------|
G|------------------------------------------------------------------|2x
D|-7-7-7-7-5-5-5-5-2-2-2-2-3-3-3-3-7-7-7-7-5-5-5-5-4-4-4-4-4-4-4-4--|
A|-8-8-8-8-7-7-7-7-3-3-3-3-5-5-5-5-8-8-8-8-7-7-7-7-5-5-5-5-5-5-5-5--|
D|------------------------------------------------------------------|


[Chorus]
-Ending

E|-------------------------------------------------------------|
B|-------------------------------------------------------------|
G|-7-7-7-5-7-7-7--7-7-7-5-7-7-7--7-7-7-5-7-7-7--7-7-7-5-7-7-7--|
D|-7-7-7-5-5-7-7--7-7-7-5-7-7-7--7-7-7-5-7-7-7--7-7-7-5-7-7-7--|
A|-5-5-5-3-5-5-5--5-5-5-3-5-5-5--5-5-5-3-5-5-5--5-5-5-3-5-5-5--|
D|-------------------------------------------------------------|

TOP cifras de Audioslave

  1. Until We Fall
  2. Heaven's Dead
  3. I Am The Highway
  4. #1 Zero
  5. Like a Stone
  6. What you are
  7. Dandelion
  8. Nothing Left To Say But Goodbye
  9. Wide Awake
  10. Give

Pela Web