Cifras Web
Audioslave

We Got A Better Bomb

Audioslave

19 acessos

drop d tuning

riff1
g-----------------------------------------------------------|
d----------------3------------------------------------------|
a-------3-5-xxxx--5-3--0-3-5---3-0-3-0----------------------|
d-0-xx----------------------0-----------5-3-5-3-0-3-0-------|

riff1 variation
g----------------------------------------------|
d----------------3-----------------------------|
a-------3-5-xxxx--5-3--0-3-5--3-0-3---3--------|
d-0-xx----------------------0--------5--3-0----|


-
-
-
-
-
-
-
-
ENJOY!!

TOP cifras de Audioslave

  1. Until We Fall
  2. Heaven's Dead
  3. I Am The Highway
  4. #1 Zero
  5. Like a Stone
  6. What you are
  7. Dandelion
  8. Nothing Left To Say But Goodbye
  9. Wide Awake
  10. Give

Pela Web