Cifras Web
Babasonicos

Satiro

Babasonicos

9 acessos

Intro: 

1----------------------- 
2----------------------- 
3----------------------- 
4----2--1--5--4--------- 
5----------------5--4--- 
6----------------------- 

riff1(sobre A) 

1------------------------- 
2------------------------- 
3------------------------- 
4------5--5--7-(5)-------- 
5---7-----------7--6--5--- 
6---5--------------------- 

Verso: Todo Sobre A 

Cerdos, no se escondan más 
salgan a explotar sus barrigas enemigas 
muestren donde guardan 
sus futuras herederas 

A5 C5 D5 (C5-D5-C5) 
         ahora empiezo 
A5 C5 D5 (C5-D5-C5) 
          voy por tu hija,  
A5 C5 D5 (C5-D5-C5) 
          a toda prisa 
A5 C5 D5  
         y las haré mi harén 

Estribillo: 

1--------------------------------- 
2--------------------------------- 
3--------------------------------- 
4--------------------------------- 
5---7--x-x---8-7-x-x--7--6--5-- 
6---5--x-x---6-5-x-x----------- 

satiro, satiro, satiro,  
satiro, satiro, satiro, satiro 

verso: 

camarada prisionero te someteré 
luego la fatal creciente te acuñará 
ahora empiezo  
voy por tu hija a toda prisa 
y las haré mi harén 
satiro, satiro, satiro,  
satiro, satiro, satiro, satiro 

Intro: 

feudos, señores del feudo 
ti villa está citiada, voy cruzando la fosa 
el hambre me deforma y el celo me acosa 
ahora empiezo 
voy por tu hija a toda prisa 
y las haré mi harén 

Estribillo: 

satiro, satiro, satiro, 
satiro, satiro, satiro, satiro 

Puente: 

1-------------------------------- 
2-------------------------------- 
3-------------------------------- 
4------5--5--7--7-(5)------------ 
5----------------------7--6--5--- 
6---5---------------------------- 

cada uno de tu raza que convenza 
es mi victoria. 

satiro, satiro, satiro,  
satiro, satiro, satiro, satiro 

final: Como intro

TOP cifras de Babasonicos

  1. Yoli
  2. Capricho
  3. Verdadero Fizz
  4. La Roncha
  5. Patinador Sagrado
  6. Putita
  7. Sol Naranja
  8. Coralcaraza
  9. El Loco
  10. Margaritas

Pela Web