Cifras Web
Babyface

The Loneliness

Babyface

15 acessos


E |-------------------------------------------------------------------
B |-------------4----------------3------------3-----------------------
G |-----3------3-3------2-------3-3-----0-h-3--3--0--------5----------
D |----5-5----5---5----3-3-----3---3---1-----------------6--6---------
A |---5---5--3--------3---3---1------------------------6------6-------
E |-3---------------1-------------------------------s4----------------



E |-------------------------------------------------
B |------5-h-7------------5-h-7---------------------
G |-----5-----5---------5------5--------------------
D |---7---------7-----7----------7------------------
A |-5---------------5-------------------------------
E |-------------------------------------------------



E |-------------------------------------------------------------------
B |-------------4----------------3------------3-----------------------
G |-----3------3-3------2-------3-3-----0-h-3--3--0--------5----------
D |----5-5----5---5----3-3-----3---3---1-----------------6--6---------
A |---5---5--3--------3---3---1------------------------6------6-------
E |-3---------------1-------------------------------s4----------------



E |-------------------------------------------------
B |------5-h-7------------5-h-7---------------------
G |-----5-----5---------5------5--------------------
D |---7---------7-----7----------7------------------
A |-5---------------5-------------------------------
E |-------------------------------------------------



E |-------------------------------------------------------------------
B |-------------4----------------3------------3-----------------------
G |-----3------3-3------2-------3-3-----0-h-3--3--0--------5----------
D |----5-5----5---5----3-3-----3---3---1-----------------6--6---------
A |---5---5--3--------3---3---1------------------------6------6-------
E |-3---------------1-------------------------------s4----------------


E |-------------------------------------------------
B |------5-h-7------------5-h-7---------------------
G |-----5-----5---------5------5--------------------
D |---7---------7-----7----------7------------------
A |-5---------------5-------------------------------
E |-------------------------------------------------

TOP cifras de Babyface

  1. The Loneliness
  2. Day That You Gave Me a Son
  3. Diary
  4. Not Going Nowhere
  5. Please Come To Boston
  6. Nobody Knows It But Me
  7. 7 Seas
  8. Knockin' On Heaven's Door
  9. Time In a Bottle
  10. How Come, How Long

Pela Web