Cifras Web
Babyshambles

Beg Steal Or Borrow Acoustic

Babyshambles

12 acessos

Pete Doherty - Beg, Steal Or Borrow (Acoustic- performed on Jonathan Ross, not literally)


Tabbed By Phil Cooper (*)

 G    D     Em    B     C     G#    C#    D#   Bm7?


-3----2-----7-----7-----0-----4-----4-----6-----0----|
-3----3-----8-----7-----1-----4-----6-----8-----0----|
-0----2-----9-----8-----0-----5-----6-----8-----0----|
-0----0-----9-----9-----2-----6-----6-----8-----1----|
-2----------7-----9-----3-----6-----4-----6-----2----|
-3----------------7-----------4-----4-----------0----|


G           D             Em    B
Why should I wait until tomorrow?
Em           B
I've already been
Em              B        C               D
I've already seen all the sorrow thats in store


G        D             Em   B
And if i beg, steal or borrow
Em              B
Just to hold on tighter
C                 D           G#
To all the sorrow tries too (?)


C#   D#     G#         C#   D#
If I change my tune
G#           C#     D#      G
Maybe well I won't be bound to do
G#                       G
Then I won't be bound to do
G#
And I won't be bound to...

LEAD BREAK

                                                 C    D

----10----12-10-8-7---7-7--------7-------7----------------|
-12----12-----------8---7-strum--8-strum-7----------------|
------------------------7--------9-------7----------------|
----------------------------------------------------------|
----------------------------------------------------------|
----------------------------------------------------------|


G           D             Em   B
'Cause if i beg, steal or borrow
Em              B
Just to hold on tighter
C                 D          G#
To all the sorrow tries too (?)

    C#   D#     G#       C#  D#
But if I change my tune
G#           C#       D#    G
Maybe well I won't be bound to

              Em             Bm7(?)
A world where rats turn into stars
C              D
What a life on Mars

G       D            Em     B
I can't wait until tomorrow
Em     B
I've already been
Em         B
And I've already seen
C       D
All the sorrow thats in store    LEAD BREAK

C                          (   )
They'll tell you anything, almost anything
G
Just to get you in the car
C
You shouldn't tell them anything
(  )
But you you told them everything
G
You've taken far too far
C      D       G     D  Em  B
What a life on Mars
C      D         (xxx999)
What a life on Mars

TOP cifras de Babyshambles

  1. Ballad Of Grimaldi
  2. Albion
  3. Carry On Up The Morning
  4. Chin Chin Cheree
  5. Karma Chameleon Cover
  6. Beg Steal Or Borrow Acoustic
  7. I Wish
  8. Baddies Boogie Intro
  9. Black Boy Lane
  10. Unbilotitled

Pela Web