Cifras Web
Bachman-Turner Overdrive

Hold Back The Water

Bachman-Turner Overdrive

104 acessos


------------------|-----------------------------------------------------------
------------------|-----------------5--6--6--5-----------3-3--0---------------
------------------|-----5-5---------5--5--5--5-----------2-2--0----2----------
---2--2-----------|-----5-5-------5----5--5--5-----------0-0--0----2----------
---0--0---------3-|-----3-3---5/7----------------7/5-3p0---------0-0----------
---------0--3-0---|-----------------------------------------------------------

(repeat (main riff) chorus)


---------------------------------5b-5-------------------------------5-5-5-5---
-----5---------3--2-2---2-2------5b-5---5--5----------2-2------5-5--5-5-5-5---
-----4r-2---2--4--2-2---2-2-------------4r-4----2-----2-2------4/6------------
----------4---------------------------------------4-2-------------------------
------------------------------------------------------------------------------
------------------------------------------------------------------------------

(solo 2)


-0-----------------------5-5-5-5--0---------------12br-12--7br-7--5-----5-5---
---0--5-5--5----2---5-5--5-5-5-5----0-5--2--------10br-10--5br-5----5---5-5---
------4/6--4----2---4/6---------------4--2------------------------------------
------------4/2-------------------------------------------------------7-------
------------------------------------------------------------------------------
------------------------------------------------------------------------------



----------------------------------------------------------17------------------
--------------------17-17-----17-----------------------------17br-------------
----------14-16-16b-------16b----16br-14----14-14h16-14-----------16br-14-----
----14h16--------------------------------16-------------------------------16--
------------------------------------------------------------------------------
------------------------------------------------------------------------------



--------------------------17--------------------------------------------------
--------------17-------------17br---------------------------------------------
-14----14-16b----16br-14----------16br-14----14-14h16-14-14-------------------
----16------------------------------------16-----------------2-2-5-4-3-2-2----
-------------------------------------------------------------0-0-3-2-1-0-0----
------------------------------------------------------------------------------
(4 times)



------------------------------------------------------------------------------
-2-3-5-5---2-3-5-5--2-3-5-3-2-0-2h0---------5-7-8-8--5-7-8-8--5-7-8-8-5-7-----
------------------------------------2-----------------------------------------
------------------------------------------------------------------------------
-0-0-0-0---0-0-0-0--0-0-0-0-0-0-0-0-0-------0-0-0-0--0-0-0-0--0-0-0-0-0-0-----
------------------------------------------------------------------------------


------------------------------------------------------------------------------
-3h0--------------------------------------------------------------------------
-----2------------------------------------------------------------------------
-------2----------------------------------------------------------------------
-0-----0----------------------------------------------------------------------
------------------------------------------------------------------------------

TOP cifras de Bachman-Turner Overdrive

  1. Hold Back The Water
  2. Down, Down
  3. Taking Care Of Business
  4. Takin Care Of Business
  5. Hey You
  6. Not Fragile Intro
  7. Not Fragile
  8. Roll On Down The Highway Solo
  9. Givin It All Away Intro
  10. Four Wheel Drive

Pela Web