Cifras Web
Backyard Babies

My Demonic Side

Backyard Babies

8 acessos

Afinação: 1/2 step (Mi bemol)


Intro:

guitarra 1:              | guitarra 2: (c/wah-wah)

       f           e         (link)

Eb|---------------------  ------------------------|
Bb|---------------------  ------------------------|
Gb|----10-10-10----9~---  ------------------------|
Db|----10-10-10----9~---  --7-7-7-7--5--7b~-------| (4x)
Ab|----8--8--8-----7~---  ------------------------|
Eb|---------------------  ------------------------|


Verso:
       f            e

Eb|-----------------------------------------------|
Bb|-----------------------------------------------|
Gb|----10-10-10-----9--9----9--9----9-------------|
Db|----10-10-10-----9--9----9--9----9-------------| (4x)
Ab|----8--8--8------7--7----7--7----7-------------|
Eb|-----------------------------------------------|


f  e
   I'm in a world of reality
   but think again cause it's misery
   how come I feel like I'm on the run
   turns a boy into man?


Pre-refrão:
       e       D      D     A

Eb|---------------------------------|
Bb|---------------------------------|
Gb|----9--9----7~-----7-------------|
Db|----9--9----7~-----7-----7-------| (2x)
Ab|----7--7----5~-----5-----7-------|
Eb|-------------------------5-------|

   e         D
   Can't get through
   
D              A    ---> guitarra 2 faz aquele link da introdução: Db|---7-7-7-7--5--7b~---|

   I'm out in the blue
   e                    D
   look what you out me through
   
D              A    --------------> guit2 faz akele link da intro: Db|---7-7-7-7--5--7b~---|

   I'm out in the blue

               A/C/D (passagem)
   Tell me this...

Refrão:
    D    F    C    D          F    C    D                  f         D

Eb|-----------------------------------------------------------------------------|
Bb|-----------------------------------------------------------------------------|
Gb|-7~--------5~---7~--------------5~---7-7-7-7-7-7-7-7----10-10-10--7----------|
Db|-7~---3~---5~---7~---x3----3~---5~---7-7-7-7-7-7-7-7----10-10-10--7----------|
Ab|-5~---3~---3~---5~---------3~---3~---5-5-5-5-5-5-5-5----8--8--8---5----------|
Eb|------1~-------------------1~------------------------------------------------|

   D         F            C        D
   Would you follow me to hell and back
   D       F           C      D
   Are you living in a broken dream
   D         F           C     D
   I've been hiding my demonic side
   F           C              D    f  D
   because the promisses were liiies     (yeah...)


->Repete riff/intro 2x.

Verso 2: (igual da primaira vez)

   My world's spinning in a roundabout
   I wake up scared and I scream and shout
   what kind of man rides a chicken race?
   a boy who wants to be a man


->Repete Pre-Refrão e Refrão


Ponte: (bridge ou interlude, sei lá...)
       G...

Eb|-------------------------------------------------|
Bb|-------------------------------------------------|
Gb|----------------7~----7--5--------------7~--/----|
Db|----5~----7--5--7~----7--5--5~----7--5--7~--/----|
Ab|----5~----7--5--5~----5--3--5~----7--5--5~--/----|
Eb|----3~----5--3--------------3~----5--3-----------|

   
      G...
       Somebody save me
  A/G/D...
       You'll never understand
  D/C/G...
       you think maybe it's complicated
  A/G/D/
       baby what you see is never what you get


Solo: (a base faz os acordes do refrão)



Parte calma:  (a base faz os acordes do refrão abafados)

->Repete o Refrão.

Final:

Eb|------------------------|
Bb|------------------------|
Gb|-------10--10--10---7~--|
Db|--7~---10--10--10---7~--|
Ab|--7~---8---8---8----5~--|
Eb|--5~--------------------|

    "it were lies, liies..."
                               <_the_end_>

Correções ou duvidas--> e-mail me

TOP cifras de Backyard Babies

  1. Abadon
  2. Look At You
  3. Roads
  4. Say When
  5. Dysfunctional Professional Intro
  6. Dysfunctional Professional
  7. I Love To Roll
  8. Star War
  9. U.F.O Romeo
  10. Babylon

Pela Web