Cifras Web
Bad Brains

At The Movies

Bad Brains

10 acessos

tabbed by *

Intro

x2

e----------------------------------------|--5-----5h6p5-----3----5~----|
B-------5---------5---------5-------5----|-----------------------------|
G----5----5----5----5----5----5---5----5-|-----------------------------|
D-7---------6---------5---------4--------|--------------------------7--|
A----------------------------------------|--------------------------7--|
E----------------------------------------|--------------------------5--|


Verse

section           A                       B

e---------------------------|-----------------------------------------|
B---------------------------|-----------------------------------------|
G---------------555555-777--|------------------5----------7------7----|
D-777777-666666-555555-777--|--7-------6-------5----------7------7----|
A-777777-666666-333333-555--|--7-------6-------3----------5------5----|
E-555555-444444-------------|--5-------4------------------------------|


         C                      D

e-|------------------|---------------|---------------------------------|
B-|------------------|---------------|---------------------------------|
G-|7--7-----5-----4--|-------7----5--|---------------------------------|
D-|7--7--5--5--4--4--|--7----7----5--|---------------------------------|
A-|5--5--5--3--4--2--|--7----5----3--|---------------------------------|
E-|------3-----2-----|--5------------|---------------------------------|



Solo
                     (this point on notes are done with heavy usage of bar)

e-----12b--10-------|-------------15------------15--------12----------|
B-10-----------10-9-|----10---------------10--------------------10----|
G-------------------|-------------------------------------------------|
D-------------------|-------------------------------------------------|
A-------------------|-------------------------------------------------|
E-------------------|-------------------------------------------------|



order:

intro
section order ABBBBAAAAACACACACADBBDBB
solo
sectiond AACBCBC


If any corrections/comments are needed contact me   please rate!

TOP cifras de Bad Brains

  1. Leaving Babylon
  2. Day Tripper Shes A Rainbow
  3. Banned In Dc
  4. Sailin On
  5. Regulator
  6. Rock For Light
  7. Right Brigade
  8. I Against I
  9. Super Touch
  10. How Low Can A Punk Get Intro

Pela Web