Cifras Web
Bad Brains

Attitude

Bad Brains

9 acessos

(first part)
g)|-------------------------------------------------|
d)|----------3-3------------------------------------|
a)|3-3-3-3-3-----7-7-7-7-7-7-7-7--------------------|
e)|-------------------------------------------------|
                   or

g)|-------------------------------------------------|
d)|-------------------------------------------------|
a)|3-3-3-3-3-8-8-7-7-7-7-7-7-7-7--------------------|
e)|-------------------------------------------------|

(second part)
g)|-------------------------------------------------|
d)|-------------------------------------------------|
a)|3-3--5-5--3-3------------------------------------|
e)|--------------5-5--------------------------------|

(third part)
g)|-------------------------------------------------|
d)|-------------------------------------------------|
a)|-------------------------------------------------|
e)|3-3-3-3-2-2-1-1----------------------------------|

(ending)
g)|-------------------------------------------------|
d)|-------------------------------------------------|
a)|3-5-7----8-7-5----3-5-7----8-7-5>----------------|
e)|-------------------------------------------------|


(order is like this)
1 x4
2 x4
3 x4
2 x4
3 x4
2 x4
1 x4
2 x4
3 x4
2 x4
Ending x1

TOP cifras de Bad Brains

  1. Leaving Babylon
  2. Day Tripper Shes A Rainbow
  3. Banned In Dc
  4. Sailin On
  5. Regulator
  6. Rock For Light
  7. Right Brigade
  8. I Against I
  9. Super Touch
  10. How Low Can A Punk Get Intro

Pela Web