Cifras Web
Bad Brains

Banned In Dc

Bad Brains

21 acessos

Banned in DC
tabbed by Punkatronicus

standard tuning
*the spacing is a bit out of whack, but other than that, this tab should be correct.

G:|-------------------------------------------------|
D:|-------------------------------------------------|
A:|---7-7-7-7-7--7----------------------------------|
E:|-----------------0>------------------------------|

G:|---------------------------------1--------|\
D:|----------------------2-2-2-2-2----2-2-2--| \x4
A:|--2-2-2-2-2--4-5-4-5----------------------| /
E:|------------------------------------------|/
                                                                                      
G:|--------------------------------------------------------------------------| 
D:|----------------------------6---------------------------------------------| 
A:|----------5-5-6-7-7-7-7-7-----7-7-7-7-7--5-5-5-5-5--5-5-5-5-5-6-7-7-7-7-7-| 
E:|3-3-3-3-3-----------------------------------------------------------------| 

G:|-------------|\
D:|-------------| \x7
A:|-p6-7-7-7-7--| /
E:|-------------|/

G:|------------------------------6-----------------------------------6--------|\
D:|-----------4-4-5-5-7-7-7-7-7---7-7-7-----------4-4-5-5-7-7-7-7-7---7-7-7---| \x2
A:|7-7-7-7-7---------------------------7-7-7-7-7------------------------------| / 
E:|---------------------------------------------------------------------------|/ 

G:|--5-5-5-5-5-4-----------------------------|\
D:|----------------5-7-----------------------| \
A:|--------------------7p6-7-7-7-7p6-7-7-7---| /x2
E:|------------------------------------------|/

G:|---------------------------------------------------------| |--------------------|
D:|---------------------------------------------------------| |--------------------|
A:|--3-3-3-3-3-3-3-3-2-2-2-2-5-5-5-5-0-0-0-0-0-0-0-0-0-0----| |--------------------|
E:|---------------------------------------------------------| |-0-0-2-2-3-3--------|

G:|----------------------------------------------------------------|\
D:|----------------------------------------------------------------| \7
A:|--3-3-3-3-3-3-3-3-2-2-2-2-5-5-5-5-0-0-0-0-0-0-0-0-0-0-0-0-0-0---| /
E:|----------------------------------------------------------------|/

G:|---------------------------------------------------------| |--------------------|
D:|---------------------------------------------------------| |--7-7-5-5-----------|
A:|--3-3-3-3-3-3-3-3-2-2-2-2-5-5-5-5-0-0-0-0-0-0-0-0-0-0----| |----------5-5-4-3---|
E:|---------------------------------------------------------| |--------------------|

G:|---------------------------------------------------------| |--------------------|
D:|---------------------------------------------------------| |--------------------|
A:|--3-3-3-3-3-3-3-3-2-2-2-2-5-5-5-5-0-0-0-0-0-0-0-0-0-0----| |--------------------|
E:|---------------------------------------------------------| |-0-0-2-2-3-3--------|

G:|----------------------------------------------------------------|\
D:|----------------------------------------------------------------| \4
A:|--3-3-3-3-3-3-3-3-2-2-2-2-5-5-5-5-0-0-0-0-0-0-0-0-0-0-0-0-0-0---| /
E:|----------------------------------------------------------------|/

TOP cifras de Bad Brains

  1. Leaving Babylon
  2. Day Tripper Shes A Rainbow
  3. Banned In Dc
  4. Sailin On
  5. Regulator
  6. Rock For Light
  7. Right Brigade
  8. I Against I
  9. Super Touch
  10. How Low Can A Punk Get Intro

Pela Web