Cifras Web
Bad Brains

Don't Need It

Bad Brains

10 acessos


E|---------------------------------------------------------------------------|
B|---------------------------------------------------------------------------|
G|---------------------------------------------------------------------------|
D|---------------------------------------------------------------------------|
A|-----------4h5p4h5p4h5p4---------------------------------------------------|
E|-------------------------7-5-4----------x4---------------------------------|



E|---------------------------------------------------------------------------|
B|---------------------------------------------------------------------------|
G|---------------------------------------------------------------------------|
D|-------9-----------7-7-----6----------7-7----------------------------------|
A|-------7-----------5-5-----4----------5-5----------------------------------|
E|---------------------------------------------------------------------------|


E|---------------------------------------------------------------------------|
B|---------------------------------------------------------------------------|
G|---------------------------------------------------------------------------|
D|-----------------------------12-12-12-12-----------------------------------|
A|-----------------------------10-10-10-10-----------------------------------|
E|---------------------------------------------------------------------------|

| /  slide up
| \  slide down
| h  hammer-on
| p  pull-off
| ~  vibrato
| +  harmonic
| x  Mute note

TOP cifras de Bad Brains

  1. Leaving Babylon
  2. Redbone In The City
  3. Day Tripper Shes A Rainbow
  4. Banned In Dc
  5. Sailin On
  6. Regulator
  7. Rock For Light
  8. I Against I
  9. Right Brigade
  10. Pay To Cum

Pela Web