Cifras Web
Bad Brains

Fearless Vampire Killers

Bad Brains

10 acessos

tabbed by *


Intro


e---------------------------------------------------------------------|
B---------------------------------------------------------------------|
G--55-66-55-77-55-66-77-55-77-55/-------------------------------------|
D---------------------------------------------------------------------|
A---------------------------------------------------------------------|
E---------------------------------------------------------------------|


       A

e--------------------------------------|-------------------------------|
B--------------------------------------|-------------------------------|
G--------------------------------------|-------------------------------|
D-9--------5----------12-11-9-----9----|----------5--------------------|
A-9--------5----------12-11-9-----9----|----------5--------------------|
E-7--------3----------10-9--7-----7----|----------3--------------------|


Verse

             B                     C                     D

e------------------------------|---------------|------------------------|
B------------------------------|---------------|------------------------|
G---77777----------10-9--77777-|-7-7-------7-7-|------------------------|
D---77777--55555---10-9--77777-|-7-7--5-5--7-7-|--3p2p0--3p2p0--0-2-----|
A---55555--55555---8--7--55555-|-5-5--5-5--5-5-|------------------------|
E----------33333---------------|------3-3------|------------------------|


             E                                      F

e-------------------------------|--------------------------------------|
B-------------------------------|--------------------------------------|
G------------------------4---2--|-7777-------------7-------------------|
D---222--5---7---5--444--4---2--|-7777-----9999----7-------------------|
A---222--5---7---5--444--2---0--|-5555-----9999----5-------------------|
E---000--3---5---3--222---------|----------7777------------------------|


Outro


e---------------------------------------------------------------------|
B---------------------------------------------------------------------|
G---------------7-7---------------------------------------------------|
D---------------7-7--------------------5-5----------------------------|
A-3p2p0-3p2p0---5-5-----3p2p0-3p2p0----5-5----------------------------|
E--------------------------------------3-3----------------------------|


Order: AABBCDEEEEFF


If any corrections/comments contact me. please rate

TOP cifras de Bad Brains

  1. Leaving Babylon
  2. Day Tripper Shes A Rainbow
  3. Banned In Dc
  4. Sailin On
  5. Regulator
  6. Rock For Light
  7. Right Brigade
  8. I Against I
  9. Super Touch
  10. How Low Can A Punk Get Intro

Pela Web