Cifras Web
Bad Brains

Pay To Cum

Bad Brains

11 acessos

Intro

e--------------------------------------------------------------|
B--------------------------------------------------------------|
G--77777-99999-------77777-99999-------------------------------|
D--55555-77777-------55555-77777-------------------------------|
A--------------77777-------------77777-------------------------|
E--------------55555-------------55555-------------------------|
These aren't the exact strumming patterns.  Play this twice by itself, and 4 more times 

bass and drums come in.

Verse
e---------------------------------------------------------------|
B---------------------------------------------------------------|
G---------------------------------------------------------------|
D---------------------------------------------------------------|
A--5555555555---------------------------------------------------|
E--3333333333---------------------------------------------------|
Just play this chord very fast palm-muted.  Alternate picking makes it a lot easier.  
to the song for timing and strumming.  After the chorrd play the intro riff twice.

Chorus

e--------------------------------------------------------------|
B--------------------------------------------------------------|
G--------------------------------------------------------------|
D------12-11---------------- x3 -------------------------------|
A------10--9-12-9----------------------------------------------|
E------------10-7----------------------------------------------|


Chorus continued

e--------------------------------------------------------------|
B--------------------------------------------------------------|
G--------------------------------------------------------------|
D------12-11------9---5----------------------------------------|
A------10--9-12-9-7-7-3-5-2------------------------------------|
E------------10-7---5---3-0------------------------------------|
It may look like a lot of notes, but I'm pretty sure it's right.  Just play the end of 

chorus very fast and listen to the song for rythms.

After the chorus play the verse again and then another chorus.  Play the intro twice and you're done.

TOP cifras de Bad Brains

  1. Leaving Babylon
  2. Day Tripper Shes A Rainbow
  3. Banned In Dc
  4. Sailin On
  5. Regulator
  6. Rock For Light
  7. Right Brigade
  8. I Against I
  9. Super Touch
  10. How Low Can A Punk Get Intro

Pela Web