Cifras Web
Bad Brains

Re-ignition

Bad Brains

8 acessos

These guys totally broke any punk rock and/or rasta stereotypes.

Tabbed by the Jackal

Notes with * over them are pinch harmonics and notes with ( ) around them are regular harmonics.
Intro

e|-----------------------------------------------------------------------------------|
B|-----------------------------------------------------------------------------------|
G|-6---676-4-2-----------------------------------------------------------------------|
D|-667-676-4-2-----------------------------------------------------------------------|
A|-467-454-2-0-----------------------------------------------------------------------|
E|--45-------------------------------------------------------------------------------|


Verse

e|------------------------------------------------------------------------------|
B|------------------------------------------------------------------------------|
G|-33333-66--------------------33333--66--------------5--4----------------------|
D|-33333-66------33333-44------33333--66------33333---5--4----------------------|
A|-11111-44------33333-44------11111--44------33333---3--2----------------------|
E|---------------11111-22---------------------11111-----------------------------|



e|------------------------------------------------------------------------------|
B|------------------------------------------------------------------------------|
G|-33333-66--------------------33333--66----------------------------------------|
D|-33333-66------33333-44------33333--66------33333-44--------*-----------------|
A|-11111-44------33333-44------11111--44------33333-44-----1343-----------------|
E|---------------11111-22---------------------11111-22--123---------------------|


Chorus

e|----------------------------------------------------------------------------------|
B|-------------------------------------------(7)------------------------------------|
G|-9----------------------9---------------(7)---------------------------------------|
D|-9----5----7------------9----5----7--(7)------------------------------------------|
A|-7----5----7--223344----7----5----7-----------------------------------------------|
E|------3----5-----------------3----5-----------------------------------------------|

              
PM|-------------------------------|
e|----------------------------------------------------------------------------------|
B|-----------------------------------------------7----------------------------------|
G|-9----------------------9----------------------7-whammy---------------------------|
D|-9----5----7------------9----5----7------------7----------------------------------|
A|-7----5----7--223344----7----5----7----5544---------------------------------------|

E|------3----5-----------------3----5-----------------------------------------------|
              PM|-------------------------------------------------------------------|

TOP cifras de Bad Brains

  1. Leaving Babylon
  2. Day Tripper Shes A Rainbow
  3. Banned In Dc
  4. Sailin On
  5. Regulator
  6. Rock For Light
  7. Right Brigade
  8. I Against I
  9. Super Touch
  10. How Low Can A Punk Get Intro

Pela Web