Cifras Web
Bad Brains

Redbone In The City

Bad Brains

9 acessos

easy song... but good!

Main Riff
G----------------|
D----------------|
A-----------3-8--|
E--33333333------| x3

On 4th time do this
G----------------------|
D----------------------|
A----------------------|
E--3333333\2/33333333--|

Chorus
G----------------------------|
D----------------------------|
A---------------55-33-22-00--|
E--6(x16)-5(x8)--------------|

End
G-------------------|
D-------------------|
A-------------------|
E--3~--3~--3~----3--|

tell me how it is

TOP cifras de Bad Brains

  1. Leaving Babylon
  2. Day Tripper Shes A Rainbow
  3. Banned In Dc
  4. Sailin On
  5. Regulator
  6. Rock For Light
  7. Right Brigade
  8. I Against I
  9. Super Touch
  10. How Low Can A Punk Get Intro

Pela Web