Cifras Web
Bad Brains

Rock For Light

Bad Brains

14 acessos

Standard Tuning : EADG

Intro
|----------|
|----------|
|----5-----|
|-6----6-5-|

Verse 1
|----------------|
|----------------|
|-5>-8>----------|
| ---------6>-8>-|

Verse 2
|---------------------|
|---------------------|
|-5>-8>---------------|
|---------6>-8>-6-4-1-|

Chorus
|-----------|
|-----------|
|----6-4----|
|-4-------4-|

Chorus End
|---------|
|---------|
|---------|
|-4-4-4-4-|

Song
Intro x1
Verse 1 x2
Verse 2 x1
Verse 1 x1
Chorus x2
Chorus End x1
Verse 1 x1
Verse 2 x1
Verse 1 x3
Verse 2 x1
Verse 1 x1
Verse 2 x1
Verse 1 x1
Verse 2 x1
Verse 1 x1

TOP cifras de Bad Brains

  1. Leaving Babylon
  2. Day Tripper Shes A Rainbow
  3. Banned In Dc
  4. Sailin On
  5. Regulator
  6. Rock For Light
  7. Right Brigade
  8. I Against I
  9. Super Touch
  10. How Low Can A Punk Get Intro

Pela Web