Cifras Web
Bad Brains

Super Touch

Bad Brains

12 acessos

Standard Tuning: EADG

Verse 1
|----------------|
|----------------|
|--6-6-8-8-6-6-8-|
|----------------|

Verse 2
|----------------|
|----------------|
|----------------|
|--6-6-8-8-6-6-8-|

Verse 3
|-----------------|
|-----------------|
|-----------------|
|-6-6-9-9-4-4-1-1-|

Verse 4
|----------|
|----------|
|----------|
|-8-9-4-1>-|

Verse 5
|--------------|
|--------------|
|-8>-----------|
|------9-8-6-4-|

Verse 6
|---------------------------------------------------|
|---------------------------------------------------|
|-4-5-4-5-4-5-4-5-7-8-7-8-7-8-7-8-3-4-3-4-5-6-5-6-8-|
|---------------------------------------------------|

Interlude
|----|
|----|
|-8>-|
|----|


End
|---|
|---|
|---|
|-1-|

Song
Verse 1 x2
Verse 2 x2
Verse 3 x4
Verse 1 x2
Verse 2 x2
Verse 3 x4
Verse 1 x2
Verse 2 x2
Verse 3 x4
Verse 1 x2
Verse 2 x2
Verse 1 x2
Verse 2 x2
Verse 3 x4
Verse 4 x4
Verse 5 x4
Verse 6 x1
Verse 4 x4
Interlude x1
Verse 6 x3
End x1

TOP cifras de Bad Brains

  1. Leaving Babylon
  2. Day Tripper Shes A Rainbow
  3. Banned In Dc
  4. Sailin On
  5. Regulator
  6. Rock For Light
  7. Right Brigade
  8. I Against I
  9. Super Touch
  10. How Low Can A Punk Get Intro

Pela Web