Cifras Web
Bad Religion

Recipe For Hate

Bad Religion

11 acessos

intro 1st part:

e|-----------------------------------------------|
B|-----------------------------------------------|
G|-----------------------------------------------|
D|-0-0-9-9--9-0--0-9-0-10-9---/12-12-12-12-7-7-7-|
A|-0-0-7-7--7-0--0-7-0-10-9---/10-10-10-10-7-7-7-|
E|----------------------8-7----------------5-5-5-|


2nd part (also same as verse): 

e|--------------------------|--------------------------|
B|--------------------------|--------------------------|
G|--------------------------|--------------------------|
D|-0-9-9--0-9-9--0-9-9--5-5-|-0-9-9--0-9-9--0-9-9--5/7-|
A|-0-7-7--0-7-7--0-7-7--3-5-|-0-7-7--0-7-7--0-7-7--3/5-|
E|------------------------3-|--------------------------|


Chorus:

e---------------------------------------------------|

B---------------------------------------------------|
G---------------------------------------------------|

D-7/9-9-9-7--9-9-12-12-10-9--7/9-9-9-7--7-7-5-5/7-7-|
A-5/7-7-7-5--7-7-10-10--8-7--5/7-7-7-5--7-7-5-5/7-7-|

E---------------------------------------5-5-3-3/5-5-|

Solo:

e-17b-------12-15p12----12----------------------------|

B-----12h15----------15----15-12-13p12-13-12----------|
G--------------------------------------------12/14-14-|
D-----------------------------------------------------|
A-----------------------------------------------------|
E-----------------------------------------------------|
if you hate it     don't rate it

TOP cifras de Bad Religion

  1. Portrait Of Authority
  2. Infected
  3. Bad Religion
  4. 21st century digital boy
  5. Victory
  6. A Walk
  7. American Jesus
  8. Belive It
  9. Boot Stomping On A Human Face Forever
  10. Grains Of Wrath

Pela Web