Cifras Web
Baltimora

Tarzan Boy

Baltimora

41 acessos

Album-Living in the Backround 1985

Tabbed By-Smellslikefeet1


Here it is
the whole tab for it
everything that isnt vocals is tabbed out for probly the one or two ppl who might
actually be interested in lookin at this tab.

p-pulloff
h-hammeron
-let ring
*-cut off
()-harmonic
/-slide too


intro and chorus1


|------------------------|
|------------------------|
|------------------------|
|----5-7~-------10~------|
|-3*-3-5~-8*-10-8-~------|
|-1*------6*-8-----------|


intro and chorus (voice keys) 
if u dont have the voice or keyboard play it like this.

|-------------------------------------|
|-------------------------------------|
|-------------------------------------|
|-------------------------------------|
|----------8----8----8--10------8-----|
|-4/6-8--10--10---10---8---8-8--------|


*Bass*

|---------------------------------------------------------|
|--------------5--7---7--7--7------------------10-10-10-10|
|---3--3--3--3---5--5--5--5-----8--8--8---10--8--8--8--8--|
|-1--1--1---------------------6--6--6---8-----------------|


Verse1
just bass

Jungle Life Im far away from nowhere
On my Own     Like Tarzan BOY

|-----------------------------------------------|
|-----------------------------------------------|
|-----------------------------------------------|
|-5-5---5-5---6-6---6-6---8-8---8-8---8-8---8-8-|


Hide and seek i Play.....                      Monkey business    on a 

|-------------------------------------------------------------------------|
|-------------------------------------------------------------------------|
|-------------------------------------------------------------------------|
|-5-5---5-5---6-6---6-6---8-8---8-8---9-9---9-9--10-10---10-10---5-5---5-5|

 sunny afternoon

|----------------------|
|----------------------|
|----------------------|
|-6-6---6-6---6-6---6-6|


verse2

bass(same as previous)

guitar1

|-5-5*-x-x-x-6-6-x-x-8-8*x-x-8-8|
|-6-6*-x-x-x-6-6-x-x-8-8*x-x-8-8|
|-5----------5-5-----5-------5--|
|-------------------------------|
|-------------------------------|
|-------------------------------|


guitar2

|----------------------------------|
|----------------------------------|
|-------------------10-10-X-x-10-10|
|-------------------10-10-x-x-10-10|
|-------------------8--8--x-x-8--8-|
|----------------------------------|


guitar1

|-5-5*-x-x-x-6-6-x-x-8-8*x-x-8-8|
|-6-6*-x-x-x-6-6-x-x-8-8*x-x-8-8|
|-5----------5-5-----5-------5--|
|-------------------------------|
|-------------------------------|
|-------------------------------|


guitar2

|----------------------------------------------|
|----------------------------------------------|
|----------------------------------------------|
|----------------------------------------------|
|-------------------10*10*10*8-8h10h12---------|
|----------------------------------------------|


guitar1

|-5-5*-x-x-x-6-6-x-x-8-8*x-x-9-9-x-x-10-10-x-x-5-5-x-x-6-6---|
|-6-6*-x-x-x-6-6-x-x-8-8*x-x10-10x-x-10-10-x-x-6-6-x-x-6-6---|
|-5----------5-5-----5---x-x-9-9-x-x-9--9--x-x-5-5-x-x-5-5---|
|------------------------------------------------------------|
|------------------------------------------------------------|
|------------------------------------------------------------|


chorus1 repeat

Chorus2
guitar1
Night Tonight                Gimme   another  Gimme   another
ChanceTonight                Gimme The other  GImme The other
Night Tonight                Gimme The Other  Gimme The Other

|-----------------------------------------------------------|
|-----------------------------------------------------------|
|--------------8-8-8-8-8-8----------------------------------|
|--------------8-8-8-8-8-8----------------------------------|
|--------------6-6-6-6-6-6-----8-8-8-7h8p7---8-8-8-7h8p7----|
|-----------------------------------------8--------------8--|


guitar2

|----------------------------------------------------------|
|----------------------------------------------------------|
|-7-7-7----------------------------------------------------|
|-7-7-7----8-8-8-8-8-8----10-10-10---8-8-8-8-8-8-----------|
|-5-5-5----8-8-8-8-8-8----10-10-10---8-8-8-8-8-8-----------|
|----------6-6-6-6-6-6----8--8--8----6-6-6-6-6-6-----------|


Bass*

|------------------------------------------------|
|------------------------------------------------|
|-5-5-5-----------------8-8-8-7--8-8-8-7---------|
|---------6-6-6-6-6-6----------8--------8--------|


WORLD!
guitar1

|-----------------------------------|
|-----------------------------------|
|-----------------------------------|
|-----------------------------------|
|--8--7-----------------------------|x4
|-8------8h10-----------------------|


guitar2

|-----------------------------------|
|-----------------------------------|
|-----------------------------------|
|-------Getting-Ready For Chorus----|
|-----------------------------------|
|-----------------------------------|


bass*

|-----------------------------------|
|-----------------------------------|
|-----------------------------------|
|-----------------------------------|x4
|--8-8-7-7--------------------------|
|----------8-10---------------------|


chorus1

Verse2 Repeat same as Verse1
Verse3 Same as verse1 and 2

Chorus2
Chorus1 till end

Top cifras de Baltimora

  1. Tarzan Boy Intro
  2. Tarzan Boy
  3. Key Key Karimba
  4. Running For Your Love
  5. Woody Boogie

Pela Web