Cifras Web
Banda Batidão

Como Num Filme

Banda Batidão

58 acessos

Intro 2x:

E|-----------------------------------------------------------------
B|-------12/14-14-14-12-14-14--------12/14-14-14-12-14-12----------
G|-9-9-9------------------------9-9-9-----------------------9-9-9--
D|-----------------------------------------------------------------
A|-----------------------------------------------------------------
E|-----------------------------------------------------------------



E|-----------------------------------------------------------------
B|-------------------------12--12--12-12/14------------------------
G|-11/13-13-13-11-13-11--13--13--13--------------------------------
D|-----------------------------------------------------------------
A|-----------------------------------------------------------------
E|-----------------------------------------------------------------


C#m A
Me liga e diz que ainda me ama,
E B
Não aguento mais tanta solidão,
C#m A
Quando se foi, levou a minha paz
E B
Por que não volta atrás, meu amor.(2x)

C#m A
Como num filme triste, chorei,
E
Lendo as cartas que deu para mim,
B
Como num jogo tudo acabou,
C#m
Mas fui eu que perdi.(2x)

Top cifras de Banda Batidão

  1. Dançar Pra Você
  2. Como Num Filme

Pela Web